  0
SECTION
  2
HEADER
  9
$ACADVER
  1
AC1009
  9
$LUNITS
 70
2
  9
$LUPREC
 70
4
  9
$LTSCALE
 40
1.0
  9
$EXTMIN
 10
-43.1955
 20
-253.5342
 30
0
  9
$EXTMAX
 10
253.8045
 20
-43.5342
 30
0
  0
ENDSEC
  0
SECTION
  2
TABLES
  0
TABLE
  2
LTYPE
 70
256
  0
ENDTAB
  0
TABLE
  2
LAYER
 70
1
  0
LAYER
  2
LAYER_1
 70
64
 62
7
  6
CONTINUOUS
  0
ENDTAB
  0
TABLE
  2
STYLE
 70
6
  0
STYLE
  2
STANDARD
 70
0
 40
0
 50
0
 71
0
 41
0
 42
0
  3
TXT
  4
BIGFONT
  0
ENDTAB
  0
ENDSEC
  0
SECTION
  2
BLOCKS
  0
BLOCK
  8
LAYER_1
  2
AIGNBL01020003
 70
64
 10
0
 20
0
 30
0
  3
AIGNBL01020003
  0
POLYLINE
  8
LAYER_1
 40
0.1764
 41
0.1764
 62
3
 66
1
 10
0
 20
0
 30
0
  0
VERTEX
  8
LAYER_1
 10
11.4081
 20
-93.4879
  0
VERTEX
  8
LAYER_1
 10
-4.5919
 20
-93.4879
  0
VERTEX
  8
LAYER_1
 10
-0.8396
 20
-86.9913
  0
SEQEND
  0
POLYLINE
  8
LAYER_1
 40
0.1764
 41
0.1764
 62
3
 66
1
 10
0
 20
0
 30
0
  0
VERTEX
  8
LAYER_1
 10
-2.5929
 20
-93.4879
  0
VERTEX
  8
LAYER_1
 10
-4.5919
 20
-93.4879
  0
SEQEND
  0
POLYLINE
  8
LAYER_1
 40
0.1764
 41
0.1764
 62
3
 66
1
 10
0
 20
0
 30
0
  0
VERTEX
  8
LAYER_1
 10
-0.594
 20
-93.4879
  0
VERTEX
  8
LAYER_1
 10
-2.5929
 20
-93.4879
  0
SEQEND
  0
POLYLINE
  8
LAYER_1
 40
0.1764
 41
0.1764
 62
3
 66
1
 10
0
 20
0
 30
0
  0
VERTEX
  8
LAYER_1
 10
1.4049
 20
-93.4879
  0
VERTEX
  8
LAYER_1
 10
-0.594
 20
-93.4879
  0
SEQEND
  0
POLYLINE
  8
LAYER_1
 40
0.1764
 41
0.1764
 62
3
 66
1
 10
0
 20
0
 30
0
  0
VERTEX
  8
LAYER_1
 10
3.4039
 20
-93.4879
  0
VERTEX
  8
LAYER_1
 10
1.4049
 20
-93.4879
  0
SEQEND
  0
POLYLINE
  8
LAYER_1
 40
0.1764
 41
0.1764
 62
3
 66
1
 10
0
 20
0
 30
0
  0
VERTEX
  8
LAYER_1
 10
5.4028
 20
-93.4879
  0
VERTEX
  8
LAYER_1
 10
3.4039
 20
-93.4879
  0
SEQEND
  0
POLYLINE
  8
LAYER_1
 40
0.1764
 41
0.1764
 62
3
 66
1
 10
0
 20
0
 30
0
  0
VERTEX
  8
LAYER_1
 10
7.4017
 20
-93.4879
  0
VERTEX
  8
LAYER_1
 10
5.4028
 20
-93.4879
  0
SEQEND
  0
POLYLINE
  8
LAYER_1
 40
0.1764
 41
0.1764
 62
3
 66
1
 10
0
 20
0
 30
0
  0
VERTEX
  8
LAYER_1
 10
9.4006
 20
-93.4879
  0
VERTEX
  8
LAYER_1
 10
7.4017
 20
-93.4879
  0
SEQEND
  0
POLYLINE
  8
LAYER_1
 40
0.1764
 41
0.1764
 62
3
 66
1
 10
0
 20
0
 30
0
  0
VERTEX
  8
LAYER_1
 10
-2.593
 20
-93.4879
  0
VERTEX
  8
LAYER_1
 10
1.371
 20
-86.6187
  0
SEQEND
  0
POLYLINE
  8
LAYER_1
 40
0.1764
 41
0.1764
 62
3
 66
1
 10
0
 20
0
 30
0
  0
VERTEX
  8
LAYER_1
 10
-0.594
 20
-93.4879
  0
VERTEX
  8
LAYER_1
 10
3.2429
 20
-86.8473
  0
SEQEND
  0
POLYLINE
  8
LAYER_1
 40
0.1764
 41
0.1764
 62
3
 66
1
 10
0
 20
0
 30
0
  0
VERTEX
  8
LAYER_1
 10
1.4049
 20
-93.4879
  0
VERTEX
  8
LAYER_1
 10
5.1995
 20
-86.9151
  0
SEQEND
  0
POLYLINE
  8
LAYER_1
 40
0.1764
 41
0.1764
 62
3
 66
1
 10
0
 20
0
 30
0
  0
VERTEX
  8
LAYER_1
 10
7.4017
 20
-86.5594
  0
VERTEX
  8
LAYER_1
 10
-0.594
 20
-86.5594
  0
SEQEND
  0
POLYLINE
  8
LAYER_1
 40
0.1764
 41
0.1764
 62
3
 66
1
 10
0
 20
0
 30
0
  0
VERTEX
  8
LAYER_1
 10
-0.8397
 20
-86.9913
  0
VERTEX
  8
LAYER_1
 10
-0.594
 20
-86.5594
  0
SEQEND
  0
POLYLINE
  8
LAYER_1
 40
0.1764
 41
0.1764
 62
3
 66
1
 10
0
 20
0
 30
0
  0
VERTEX
  8
LAYER_1
 10
3.2429
 20
-86.8473
  0
VERTEX
  8
LAYER_1
 10
3.4038
 20
-86.5594
  0
SEQEND
  0
POLYLINE
  8
LAYER_1
 40
0.1764
 41
0.1764
 62
3
 66
1
 10
0
 20
0
 30
0
  0
VERTEX
  8
LAYER_1
 10
5.1995
 20
-86.9151
  0
VERTEX
  8
LAYER_1
 10
5.4028
 20
-86.5594
  0
SEQEND
  0
POLYLINE
  8
LAYER_1
 40
0.1764
 41
0.1764
 62
3
 66
1
 10
0
 20
0
 30
0
  0
VERTEX
  8
LAYER_1
 10
11.408
 20
-93.4879
  0
VERTEX
  8
LAYER_1
 10
7.4017
 20
-86.5594
  0
SEQEND
  0
POLYLINE
  8
LAYER_1
 40
0.1764
 41
0.1764
 62
3
 66
1
 10
0
 20
0
 30
0
  0
VERTEX
  8
LAYER_1
 10
3.4038
 20
-93.4879
  0
VERTEX
  8
LAYER_1
 10
7.4017
 20
-86.5594
  0
SEQEND
  0
POLYLINE
  8
LAYER_1
 40
0.1764
 41
0.1764
 62
3
 66
1
 10
0
 20
0
 30
0
  0
VERTEX
  8
LAYER_1
 10
5.4028
 20
-93.4879
  0
VERTEX
  8
LAYER_1
 10
4.4033
 20
-91.76
  0
SEQEND
  0
POLYLINE
  8
LAYER_1
 40
0.1764
 41
0.1764
 62
3
 66
1
 10
0
 20
0
 30
0
  0
VERTEX
  8
LAYER_1
 10
7.4017
 20
-93.4879
  0
VERTEX
  8
LAYER_1
 10
5.4028
 20
-90.0236
  0
SEQEND
  0
POLYLINE
  8
LAYER_1
 40
0.1764
 41
0.1764
 62
3
 66
1
 10
0
 20
0
 30
0
  0
VERTEX
  8
LAYER_1
 10
9.4006
 20
-93.4879
  0
VERTEX
  8
LAYER_1
 10
6.4022
 20
-88.2957
  0
SEQEND
  0
ENDBLK
  0
BLOCK
  8
LAYER_1
  2
AIGNBL01020006
 70
64
 10
0
 20
0
 30
0
  3
AIGNBL01020006
  0
POLYLINE
  8
LAYER_1
 40
0.1764
 41
0.1764
 62
3
 66
1
 10
0
 20
0
 30
0
  0
VERTEX
  8
LAYER_1
 10
2.2873
 20
-222.9382
  0
VERTEX
  8
LAYER_1
 10
-19.2954
 20
-222.9382
  0
VERTEX
  8
LAYER_1
 10
-14.2339
 20
-214.175
  0
SEQEND
  0
POLYLINE
  8
LAYER_1
 40
0.1764
 41
0.1764
 62
3
 66
1
 10
0
 20
0
 30
0
  0
VERTEX
  8
LAYER_1
 10
-16.599
 20
-222.9382
  0
VERTEX
  8
LAYER_1
 10
-19.2954
 20
-222.9382
  0
SEQEND
  0
POLYLINE
  8
LAYER_1
 40
0.1764
 41
0.1764
 62
3
 66
1
 10
0
 20
0
 30
0
  0
VERTEX
  8
LAYER_1
 10
-13.9026
 20
-222.9382
  0
VERTEX
  8
LAYER_1
 10
-16.599
 20
-222.9382
  0
SEQEND
  0
POLYLINE
  8
LAYER_1
 40
0.1764
 41
0.1764
 62
3
 66
1
 10
0
 20
0
 30
0
  0
VERTEX
  8
LAYER_1
 10
-11.2062
 20
-222.9382
  0
VERTEX
  8
LAYER_1
 10
-13.9026
 20
-222.9382
  0
SEQEND
  0
POLYLINE
  8
LAYER_1
 40
0.1764
 41
0.1764
 62
3
 66
1
 10
0
 20
0
 30
0
  0
VERTEX
  8
LAYER_1
 10
-8.5098
 20
-222.9382
  0
VERTEX
  8
LAYER_1
 10
-11.2062
 20
-222.9382
  0
SEQEND
  0
POLYLINE
  8
LAYER_1
 40
0.1764
 41
0.1764
 62
3
 66
1
 10
0
 20
0
 30
0
  0
VERTEX
  8
LAYER_1
 10
-5.8134
 20
-222.9382
  0
VERTEX
  8
LAYER_1
 10
-8.5098
 20
-222.9382
  0
SEQEND
  0
POLYLINE
  8
LAYER_1
 40
0.1764
 41
0.1764
 62
3
 66
1
 10
0
 20
0
 30
0
  0
VERTEX
  8
LAYER_1
 10
-3.117
 20
-222.9382
  0
VERTEX
  8
LAYER_1
 10
-5.8134
 20
-222.9382
  0
SEQEND
  0
POLYLINE
  8
LAYER_1
 40
0.1764
 41
0.1764
 62
3
 66
1
 10
0
 20
0
 30
0
  0
VERTEX
  8
LAYER_1
 10
-0.4206
 20
-222.9382
  0
VERTEX
  8
LAYER_1
 10
-3.117
 20
-222.9382
  0
SEQEND
  0
POLYLINE
  8
LAYER_1
 40
0.1764
 41
0.1764
 62
3
 66
1
 10
0
 20
0
 30
0
  0
VERTEX
  8
LAYER_1
 10
-16.599
 20
-222.9382
  0
VERTEX
  8
LAYER_1
 10
-11.2519
 20
-213.6722
  0
SEQEND
  0
POLYLINE
  8
LAYER_1
 40
0.1764
 41
0.1764
 62
3
 66
1
 10
0
 20
0
 30
0
  0
VERTEX
  8
LAYER_1
 10
-13.9026
 20
-222.9382
  0
VERTEX
  8
LAYER_1
 10
-8.7269
 20
-213.9807
  0
SEQEND
  0
POLYLINE
  8
LAYER_1
 40
0.1764
 41
0.1764
 62
3
 66
1
 10
0
 20
0
 30
0
  0
VERTEX
  8
LAYER_1
 10
-11.2062
 20
-222.9382
  0
VERTEX
  8
LAYER_1
 10
-6.0876
 20
-214.0721
  0
SEQEND
  0
POLYLINE
  8
LAYER_1
 40
0.1764
 41
0.1764
 62
3
 66
1
 10
0
 20
0
 30
0
  0
VERTEX
  8
LAYER_1
 10
-3.117
 20
-213.5923
  0
VERTEX
  8
LAYER_1
 10
-13.9026
 20
-213.5923
  0
SEQEND
  0
POLYLINE
  8
LAYER_1
 40
0.1764
 41
0.1764
 62
3
 66
1
 10
0
 20
0
 30
0
  0
VERTEX
  8
LAYER_1
 10
-14.2339
 20
-214.175
  0
VERTEX
  8
LAYER_1
 10
-13.9026
 20
-213.5923
  0
SEQEND
  0
POLYLINE
  8
LAYER_1
 40
0.1764
 41
0.1764
 62
3
 66
1
 10
0
 20
0
 30
0
  0
VERTEX
  8
LAYER_1
 10
-8.7269
 20
-213.9807
  0
VERTEX
  8
LAYER_1
 10
-8.5098
 20
-213.5923
  0
SEQEND
  0
POLYLINE
  8
LAYER_1
 40
0.1764
 41
0.1764
 62
3
 66
1
 10
0
 20
0
 30
0
  0
VERTEX
  8
LAYER_1
 10
-6.0876
 20
-214.0721
  0
VERTEX
  8
LAYER_1
 10
-5.8134
 20
-213.5922
  0
SEQEND
  0
POLYLINE
  8
LAYER_1
 40
0.1764
 41
0.1764
 62
3
 66
1
 10
0
 20
0
 30
0
  0
VERTEX
  8
LAYER_1
 10
2.2872
 20
-222.9382
  0
VERTEX
  8
LAYER_1
 10
-3.117
 20
-213.5922
  0
SEQEND
  0
POLYLINE
  8
LAYER_1
 40
0.1764
 41
0.1764
 62
3
 66
1
 10
0
 20
0
 30
0
  0
VERTEX
  8
LAYER_1
 10
-8.5098
 20
-222.9382
  0
VERTEX
  8
LAYER_1
 10
-3.117
 20
-213.5922
  0
SEQEND
  0
POLYLINE
  8
LAYER_1
 40
0.1764
 41
0.1764
 62
3
 66
1
 10
0
 20
0
 30
0
  0
VERTEX
  8
LAYER_1
 10
-5.8134
 20
-222.9382
  0
VERTEX
  8
LAYER_1
 10
-7.1616
 20
-220.6075
  0
SEQEND
  0
POLYLINE
  8
LAYER_1
 40
0.1764
 41
0.1764
 62
3
 66
1
 10
0
 20
0
 30
0
  0
VERTEX
  8
LAYER_1
 10
-3.117
 20
-222.9382
  0
VERTEX
  8
LAYER_1
 10
-5.8134
 20
-218.2652
  0
SEQEND
  0
POLYLINE
  8
LAYER_1
 40
0.1764
 41
0.1764
 62
3
 66
1
 10
0
 20
0
 30
0
  0
VERTEX
  8
LAYER_1
 10
-0.4206
 20
-222.9382
  0
VERTEX
  8
LAYER_1
 10
-4.4652
 20
-215.9345
  0
SEQEND
  0
ENDBLK
  0
BLOCK
  8
LAYER_1
  2
AIGNBL01020009
 70
64
 10
0
 20
0
 30
0
  3
AIGNBL01020009
  0
POLYLINE
  8
LAYER_1
 40
0.1764
 41
0.1764
 62
3
 66
1
 10
0
 20
0
 30
0
  0
VERTEX
  8
LAYER_1
 10
11.8323
 20
-94.1689
  0
VERTEX
  8
LAYER_1
 10
19.8323
 20
-108.0253
  0
VERTEX
  8
LAYER_1
 10
12.33
 20
-108.024
  0
SEQEND
  0
POLYLINE
  8
LAYER_1
 40
0.1764
 41
0.1764
 62
3
 66
1
 10
0
 20
0
 30
0
  0
VERTEX
  8
LAYER_1
 10
18.8328
 20
-106.2941
  0
VERTEX
  8
LAYER_1
 10
19.8323
 20
-108.0253
  0
SEQEND
  0
POLYLINE
  8
LAYER_1
 40
0.1764
 41
0.1764
 62
3
 66
1
 10
0
 20
0
 30
0
  0
VERTEX
  8
LAYER_1
 10
17.8333
 20
-104.563
  0
VERTEX
  8
LAYER_1
 10
18.8328
 20
-106.2941
  0
SEQEND
  0
POLYLINE
  8
LAYER_1
 40
0.1764
 41
0.1764
 62
3
 66
1
 10
0
 20
0
 30
0
  0
VERTEX
  8
LAYER_1
 10
16.8339
 20
-102.8319
  0
VERTEX
  8
LAYER_1
 10
17.8333
 20
-104.563
  0
SEQEND
  0
POLYLINE
  8
LAYER_1
 40
0.1764
 41
0.1764
 62
3
 66
1
 10
0
 20
0
 30
0
  0
VERTEX
  8
LAYER_1
 10
15.8344
 20
-101.1008
  0
VERTEX
  8
LAYER_1
 10
16.8339
 20
-102.8319
  0
SEQEND
  0
POLYLINE
  8
LAYER_1
 40
0.1764
 41
0.1764
 62
3
 66
1
 10
0
 20
0
 30
0
  0
VERTEX
  8
LAYER_1
 10
14.8349
 20
-99.3696
  0
VERTEX
  8
LAYER_1
 10
15.8344
 20
-101.1008
  0
SEQEND
  0
POLYLINE
  8
LAYER_1
 40
0.1764
 41
0.1764
 62
3
 66
1
 10
0
 20
0
 30
0
  0
VERTEX
  8
LAYER_1
 10
13.8355
 20
-97.6385
  0
VERTEX
  8
LAYER_1
 10
14.8349
 20
-99.3696
  0
SEQEND
  0
POLYLINE
  8
LAYER_1
 40
0.1764
 41
0.1764
 62
3
 66
1
 10
0
 20
0
 30
0
  0
VERTEX
  8
LAYER_1
 10
12.836
 20
-95.9074
  0
VERTEX
  8
LAYER_1
 10
13.8355
 20
-97.6385
  0
SEQEND
  0
POLYLINE
  8
LAYER_1
 40
0.1764
 41
0.1764
 62
3
 66
1
 10
0
 20
0
 30
0
  0
VERTEX
  8
LAYER_1
 10
18.8328
 20
-106.2942
  0
VERTEX
  8
LAYER_1
 10
10.9019
 20
-106.2958
  0
SEQEND
  0
POLYLINE
  8
LAYER_1
 40
0.1764
 41
0.1764
 62
3
 66
1
 10
0
 20
0
 30
0
  0
VERTEX
  8
LAYER_1
 10
17.8333
 20
-104.563
  0
VERTEX
  8
LAYER_1
 10
10.164
 20
-104.5604
  0
SEQEND
  0
POLYLINE
  8
LAYER_1
 40
0.1764
 41
0.1764
 62
3
 66
1
 10
0
 20
0
 30
0
  0
VERTEX
  8
LAYER_1
 10
16.8339
 20
-102.8319
  0
VERTEX
  8
LAYER_1
 10
9.2444
 20
-102.8321
  0
SEQEND
  0
POLYLINE
  8
LAYER_1
 40
0.1764
 41
0.1764
 62
3
 66
1
 10
0
 20
0
 30
0
  0
VERTEX
  8
LAYER_1
 10
7.8352
 20
-101.1028
  0
VERTEX
  8
LAYER_1
 10
11.8331
 20
-108.0273
  0
SEQEND
  0
POLYLINE
  8
LAYER_1
 40
0.1764
 41
0.1764
 62
3
 66
1
 10
0
 20
0
 30
0
  0
VERTEX
  8
LAYER_1
 10
12.33
 20
-108.024
  0
VERTEX
  8
LAYER_1
 10
11.8331
 20
-108.0273
  0
SEQEND
  0
POLYLINE
  8
LAYER_1
 40
0.1764
 41
0.1764
 62
3
 66
1
 10
0
 20
0
 30
0
  0
VERTEX
  8
LAYER_1
 10
10.164
 20
-104.5604
  0
VERTEX
  8
LAYER_1
 10
9.8342
 20
-104.565
  0
SEQEND
  0
POLYLINE
  8
LAYER_1
 40
0.1764
 41
0.1764
 62
3
 66
1
 10
0
 20
0
 30
0
  0
VERTEX
  8
LAYER_1
 10
9.2444
 20
-102.8321
  0
VERTEX
  8
LAYER_1
 10
8.8347
 20
-102.8339
  0
SEQEND
  0
POLYLINE
  8
LAYER_1
 40
0.1764
 41
0.1764
 62
3
 66
1
 10
0
 20
0
 30
0
  0
VERTEX
  8
LAYER_1
 10
11.8323
 20
-94.169
  0
VERTEX
  8
LAYER_1
 10
7.8352
 20
-101.1028
  0
SEQEND
  0
POLYLINE
  8
LAYER_1
 40
0.1764
 41
0.1764
 62
3
 66
1
 10
0
 20
0
 30
0
  0
VERTEX
  8
LAYER_1
 10
15.8344
 20
-101.1008
  0
VERTEX
  8
LAYER_1
 10
7.8352
 20
-101.1028
  0
SEQEND
  0
POLYLINE
  8
LAYER_1
 40
0.1764
 41
0.1764
 62
3
 66
1
 10
0
 20
0
 30
0
  0
VERTEX
  8
LAYER_1
 10
14.8349
 20
-99.3697
  0
VERTEX
  8
LAYER_1
 10
13.8383
 20
-101.0992
  0
SEQEND
  0
POLYLINE
  8
LAYER_1
 40
0.1764
 41
0.1764
 62
3
 66
1
 10
0
 20
0
 30
0
  0
VERTEX
  8
LAYER_1
 10
13.8355
 20
-97.6385
  0
VERTEX
  8
LAYER_1
 10
11.8348
 20
-101.1018
  0
SEQEND
  0
POLYLINE
  8
LAYER_1
 40
0.1764
 41
0.1764
 62
3
 66
1
 10
0
 20
0
 30
0
  0
VERTEX
  8
LAYER_1
 10
12.836
 20
-95.9074
  0
VERTEX
  8
LAYER_1
 10
9.8387
 20
-101.1002
  0
SEQEND
  0
ENDBLK
  0
BLOCK
  8
LAYER_1
  2
AIGNBL0102000C
 70
64
 10
0
 20
0
 30
0
  3
AIGNBL0102000C
  0
POLYLINE
  8
LAYER_1
 40
0.1764
 41
0.1764
 62
3
 66
1
 10
0
 20
0
 30
0
  0
VERTEX
  8
LAYER_1
 10
12.2216
 20
-93.5487
  0
VERTEX
  8
LAYER_1
 10
20.2216
 20
-79.6924
  0
VERTEX
  8
LAYER_1
 10
23.9716
 20
-86.1902
  0
SEQEND
  0
POLYLINE
  8
LAYER_1
 40
0.1764
 41
0.1764
 62
3
 66
1
 10
0
 20
0
 30
0
  0
VERTEX
  8
LAYER_1
 10
19.2221
 20
-81.4235
  0
VERTEX
  8
LAYER_1
 10
20.2216
 20
-79.6924
  0
SEQEND
  0
POLYLINE
  8
LAYER_1
 40
0.1764
 41
0.1764
 62
3
 66
1
 10
0
 20
0
 30
0
  0
VERTEX
  8
LAYER_1
 10
18.2227
 20
-83.1546
  0
VERTEX
  8
LAYER_1
 10
19.2221
 20
-81.4235
  0
SEQEND
  0
POLYLINE
  8
LAYER_1
 40
0.1764
 41
0.1764
 62
3
 66
1
 10
0
 20
0
 30
0
  0
VERTEX
  8
LAYER_1
 10
17.2232
 20
-84.8857
  0
VERTEX
  8
LAYER_1
 10
18.2227
 20
-83.1546
  0
SEQEND
  0
POLYLINE
  8
LAYER_1
 40
0.1764
 41
0.1764
 62
3
 66
1
 10
0
 20
0
 30
0
  0
VERTEX
  8
LAYER_1
 10
16.2237
 20
-86.6169
  0
VERTEX
  8
LAYER_1
 10
17.2232
 20
-84.8857
  0
SEQEND
  0
POLYLINE
  8
LAYER_1
 40
0.1764
 41
0.1764
 62
3
 66
1
 10
0
 20
0
 30
0
  0
VERTEX
  8
LAYER_1
 10
15.2243
 20
-88.348
  0
VERTEX
  8
LAYER_1
 10
16.2237
 20
-86.6169
  0
SEQEND
  0
POLYLINE
  8
LAYER_1
 40
0.1764
 41
0.1764
 62
3
 66
1
 10
0
 20
0
 30
0
  0
VERTEX
  8
LAYER_1
 10
14.2248
 20
-90.0791
  0
VERTEX
  8
LAYER_1
 10
15.2243
 20
-88.348
  0
SEQEND
  0
POLYLINE
  8
LAYER_1
 40
0.1764
 41
0.1764
 62
3
 66
1
 10
0
 20
0
 30
0
  0
VERTEX
  8
LAYER_1
 10
13.2253
 20
-91.8102
  0
VERTEX
  8
LAYER_1
 10
14.2248
 20
-90.0791
  0
SEQEND
  0
POLYLINE
  8
LAYER_1
 40
0.1764
 41
0.1764
 62
3
 66
1
 10
0
 20
0
 30
0
  0
VERTEX
  8
LAYER_1
 10
19.2221
 20
-81.4235
  0
VERTEX
  8
LAYER_1
 10
23.1891
 20
-88.291
  0
SEQEND
  0
POLYLINE
  8
LAYER_1
 40
0.1764
 41
0.1764
 62
3
 66
1
 10
0
 20
0
 30
0
  0
VERTEX
  8
LAYER_1
 10
18.2227
 20
-83.1546
  0
VERTEX
  8
LAYER_1
 10
22.0551
 20
-89.7977
  0
SEQEND
  0
POLYLINE
  8
LAYER_1
 40
0.1764
 41
0.1764
 62
3
 66
1
 10
0
 20
0
 30
0
  0
VERTEX
  8
LAYER_1
 10
17.2232
 20
-84.8857
  0
VERTEX
  8
LAYER_1
 10
21.0181
 20
-91.4583
  0
SEQEND
  0
POLYLINE
  8
LAYER_1
 40
0.1764
 41
0.1764
 62
3
 66
1
 10
0
 20
0
 30
0
  0
VERTEX
  8
LAYER_1
 10
20.2251
 20
-93.5433
  0
VERTEX
  8
LAYER_1
 10
24.2229
 20
-86.6188
  0
SEQEND
  0
POLYLINE
  8
LAYER_1
 40
0.1764
 41
0.1764
 62
3
 66
1
 10
0
 20
0
 30
0
  0
VERTEX
  8
LAYER_1
 10
23.9717
 20
-86.1901
  0
VERTEX
  8
LAYER_1
 10
24.2229
 20
-86.6188
  0
SEQEND
  0
POLYLINE
  8
LAYER_1
 40
0.1764
 41
0.1764
 62
3
 66
1
 10
0
 20
0
 30
0
  0
VERTEX
  8
LAYER_1
 10
22.0551
 20
-89.7977
  0
VERTEX
  8
LAYER_1
 10
22.224
 20
-90.0811
  0
SEQEND
  0
POLYLINE
  8
LAYER_1
 40
0.1764
 41
0.1764
 62
3
 66
1
 10
0
 20
0
 30
0
  0
VERTEX
  8
LAYER_1
 10
21.0181
 20
-91.4583
  0
VERTEX
  8
LAYER_1
 10
21.2245
 20
-91.8122
  0
SEQEND
  0
POLYLINE
  8
LAYER_1
 40
0.1764
 41
0.1764
 62
3
 66
1
 10
0
 20
0
 30
0
  0
VERTEX
  8
LAYER_1
 10
12.2216
 20
-93.5487
  0
VERTEX
  8
LAYER_1
 10
20.2251
 20
-93.5433
  0
SEQEND
  0
POLYLINE
  8
LAYER_1
 40
0.1764
 41
0.1764
 62
3
 66
1
 10
0
 20
0
 30
0
  0
VERTEX
  8
LAYER_1
 10
16.2238
 20
-86.6168
  0
VERTEX
  8
LAYER_1
 10
20.2251
 20
-93.5433
  0
SEQEND
  0
POLYLINE
  8
LAYER_1
 40
0.1764
 41
0.1764
 62
3
 66
1
 10
0
 20
0
 30
0
  0
VERTEX
  8
LAYER_1
 10
15.2243
 20
-88.348
  0
VERTEX
  8
LAYER_1
 10
17.2204
 20
-88.3463
  0
SEQEND
  0
POLYLINE
  8
LAYER_1
 40
0.1764
 41
0.1764
 62
3
 66
1
 10
0
 20
0
 30
0
  0
VERTEX
  8
LAYER_1
 10
14.2248
 20
-90.0791
  0
VERTEX
  8
LAYER_1
 10
18.2244
 20
-90.0801
  0
SEQEND
  0
POLYLINE
  8
LAYER_1
 40
0.1764
 41
0.1764
 62
3
 66
1
 10
0
 20
0
 30
0
  0
VERTEX
  8
LAYER_1
 10
13.2254
 20
-91.8102
  0
VERTEX
  8
LAYER_1
 10
19.2211
 20
-91.8096
  0
SEQEND
  0
ENDBLK
  0
BLOCK
  8
LAYER_1
  2
AIGNBL0102000F
 70
64
 10
0
 20
0
 30
0
  3
AIGNBL0102000F
  0
POLYLINE
  8
LAYER_1
 40
0.1764
 41
0.1764
 62
3
 66
1
 10
0
 20
0
 30
0
  0
VERTEX
  8
LAYER_1
 10
36.8857
 20
-93.4879
  0
VERTEX
  8
LAYER_1
 10
20.8858
 20
-93.4879
  0
VERTEX
  8
LAYER_1
 10
24.638
 20
-86.9913
  0
SEQEND
  0
POLYLINE
  8
LAYER_1
 40
0.1764
 41
0.1764
 62
3
 66
1
 10
0
 20
0
 30
0
  0
VERTEX
  8
LAYER_1
 10
22.8847
 20
-93.4879
  0
VERTEX
  8
LAYER_1
 10
20.8858
 20
-93.4879
  0
SEQEND
  0
POLYLINE
  8
LAYER_1
 40
0.1764
 41
0.1764
 62
3
 66
1
 10
0
 20
0
 30
0
  0
VERTEX
  8
LAYER_1
 10
24.8836
 20
-93.4879
  0
VERTEX
  8
LAYER_1
 10
22.8847
 20
-93.4879
  0
SEQEND
  0
POLYLINE
  8
LAYER_1
 40
0.1764
 41
0.1764
 62
3
 66
1
 10
0
 20
0
 30
0
  0
VERTEX
  8
LAYER_1
 10
26.8826
 20
-93.4879
  0
VERTEX
  8
LAYER_1
 10
24.8836
 20
-93.4879
  0
SEQEND
  0
POLYLINE
  8
LAYER_1
 40
0.1764
 41
0.1764
 62
3
 66
1
 10
0
 20
0
 30
0
  0
VERTEX
  8
LAYER_1
 10
28.8815
 20
-93.4879
  0
VERTEX
  8
LAYER_1
 10
26.8826
 20
-93.4879
  0
SEQEND
  0
POLYLINE
  8
LAYER_1
 40
0.1764
 41
0.1764
 62
3
 66
1
 10
0
 20
0
 30
0
  0
VERTEX
  8
LAYER_1
 10
30.8804
 20
-93.4879
  0
VERTEX
  8
LAYER_1
 10
28.8815
 20
-93.4879
  0
SEQEND
  0
POLYLINE
  8
LAYER_1
 40
0.1764
 41
0.1764
 62
3
 66
1
 10
0
 20
0
 30
0
  0
VERTEX
  8
LAYER_1
 10
32.8793
 20
-93.4879
  0
VERTEX
  8
LAYER_1
 10
30.8804
 20
-93.4879
  0
SEQEND
  0
POLYLINE
  8
LAYER_1
 40
0.1764
 41
0.1764
 62
3
 66
1
 10
0
 20
0
 30
0
  0
VERTEX
  8
LAYER_1
 10
34.8783
 20
-93.4879
  0
VERTEX
  8
LAYER_1
 10
32.8793
 20
-93.4879
  0
SEQEND
  0
POLYLINE
  8
LAYER_1
 40
0.1764
 41
0.1764
 62
3
 66
1
 10
0
 20
0
 30
0
  0
VERTEX
  8
LAYER_1
 10
22.8847
 20
-93.4879
  0
VERTEX
  8
LAYER_1
 10
26.8487
 20
-86.6187
  0
SEQEND
  0
POLYLINE
  8
LAYER_1
 40
0.1764
 41
0.1764
 62
3
 66
1
 10
0
 20
0
 30
0
  0
VERTEX
  8
LAYER_1
 10
24.8836
 20
-93.4879
  0
VERTEX
  8
LAYER_1
 10
28.7205
 20
-86.8473
  0
SEQEND
  0
POLYLINE
  8
LAYER_1
 40
0.1764
 41
0.1764
 62
3
 66
1
 10
0
 20
0
 30
0
  0
VERTEX
  8
LAYER_1
 10
26.8825
 20
-93.4879
  0
VERTEX
  8
LAYER_1
 10
30.6771
 20
-86.9151
  0
SEQEND
  0
POLYLINE
  8
LAYER_1
 40
0.1764
 41
0.1764
 62
3
 66
1
 10
0
 20
0
 30
0
  0
VERTEX
  8
LAYER_1
 10
32.8793
 20
-86.5594
  0
VERTEX
  8
LAYER_1
 10
24.8836
 20
-86.5594
  0
SEQEND
  0
POLYLINE
  8
LAYER_1
 40
0.1764
 41
0.1764
 62
3
 66
1
 10
0
 20
0
 30
0
  0
VERTEX
  8
LAYER_1
 10
24.638
 20
-86.9913
  0
VERTEX
  8
LAYER_1
 10
24.8836
 20
-86.5594
  0
SEQEND
  0
POLYLINE
  8
LAYER_1
 40
0.1764
 41
0.1764
 62
3
 66
1
 10
0
 20
0
 30
0
  0
VERTEX
  8
LAYER_1
 10
28.7205
 20
-86.8473
  0
VERTEX
  8
LAYER_1
 10
28.8815
 20
-86.5594
  0
SEQEND
  0
POLYLINE
  8
LAYER_1
 40
0.1764
 41
0.1764
 62
3
 66
1
 10
0
 20
0
 30
0
  0
VERTEX
  8
LAYER_1
 10
30.6771
 20
-86.9151
  0
VERTEX
  8
LAYER_1
 10
30.8804
 20
-86.5594
  0
SEQEND
  0
POLYLINE
  8
LAYER_1
 40
0.1764
 41
0.1764
 62
3
 66
1
 10
0
 20
0
 30
0
  0
VERTEX
  8
LAYER_1
 10
36.8857
 20
-93.4879
  0
VERTEX
  8
LAYER_1
 10
32.8793
 20
-86.5594
  0
SEQEND
  0
POLYLINE
  8
LAYER_1
 40
0.1764
 41
0.1764
 62
3
 66
1
 10
0
 20
0
 30
0
  0
VERTEX
  8
LAYER_1
 10
28.8815
 20
-93.4879
  0
VERTEX
  8
LAYER_1
 10
32.8793
 20
-86.5594
  0
SEQEND
  0
POLYLINE
  8
LAYER_1
 40
0.1764
 41
0.1764
 62
3
 66
1
 10
0
 20
0
 30
0
  0
VERTEX
  8
LAYER_1
 10
30.8804
 20
-93.4879
  0
VERTEX
  8
LAYER_1
 10
29.8809
 20
-91.76
  0
SEQEND
  0
POLYLINE
  8
LAYER_1
 40
0.1764
 41
0.1764
 62
3
 66
1
 10
0
 20
0
 30
0
  0
VERTEX
  8
LAYER_1
 10
32.8793
 20
-93.4879
  0
VERTEX
  8
LAYER_1
 10
30.8804
 20
-90.0236
  0
SEQEND
  0
POLYLINE
  8
LAYER_1
 40
0.1764
 41
0.1764
 62
3
 66
1
 10
0
 20
0
 30
0
  0
VERTEX
  8
LAYER_1
 10
34.8782
 20
-93.4879
  0
VERTEX
  8
LAYER_1
 10
31.8798
 20
-88.2957
  0
SEQEND
  0
ENDBLK
  0
BLOCK
  8
LAYER_1
  2
AIGNBL01020012
 70
64
 10
0
 20
0
 30
0
  3
AIGNBL01020012
  0
POLYLINE
  8
LAYER_1
 40
0.1764
 41
0.1764
 62
3
 66
1
 10
0
 20
0
 30
0
  0
VERTEX
  8
LAYER_1
 10
37.3099
 20
-94.1689
  0
VERTEX
  8
LAYER_1
 10
45.3099
 20
-108.0253
  0
VERTEX
  8
LAYER_1
 10
37.8076
 20
-108.024
  0
SEQEND
  0
POLYLINE
  8
LAYER_1
 40
0.1764
 41
0.1764
 62
3
 66
1
 10
0
 20
0
 30
0
  0
VERTEX
  8
LAYER_1
 10
44.3104
 20
-106.2941
  0
VERTEX
  8
LAYER_1
 10
45.3099
 20
-108.0253
  0
SEQEND
  0
POLYLINE
  8
LAYER_1
 40
0.1764
 41
0.1764
 62
3
 66
1
 10
0
 20
0
 30
0
  0
VERTEX
  8
LAYER_1
 10
43.311
 20
-104.563
  0
VERTEX
  8
LAYER_1
 10
44.3104
 20
-106.2941
  0
SEQEND
  0
POLYLINE
  8
LAYER_1
 40
0.1764
 41
0.1764
 62
3
 66
1
 10
0
 20
0
 30
0
  0
VERTEX
  8
LAYER_1
 10
42.3115
 20
-102.8319
  0
VERTEX
  8
LAYER_1
 10
43.311
 20
-104.563
  0
SEQEND
  0
POLYLINE
  8
LAYER_1
 40
0.1764
 41
0.1764
 62
3
 66
1
 10
0
 20
0
 30
0
  0
VERTEX
  8
LAYER_1
 10
41.312
 20
-101.1008
  0
VERTEX
  8
LAYER_1
 10
42.3115
 20
-102.8319
  0
SEQEND
  0
POLYLINE
  8
LAYER_1
 40
0.1764
 41
0.1764
 62
3
 66
1
 10
0
 20
0
 30
0
  0
VERTEX
  8
LAYER_1
 10
40.3126
 20
-99.3696
  0
VERTEX
  8
LAYER_1
 10
41.312
 20
-101.1008
  0
SEQEND
  0
POLYLINE
  8
LAYER_1
 40
0.1764
 41
0.1764
 62
3
 66
1
 10
0
 20
0
 30
0
  0
VERTEX
  8
LAYER_1
 10
39.3131
 20
-97.6385
  0
VERTEX
  8
LAYER_1
 10
40.3126
 20
-99.3696
  0
SEQEND
  0
POLYLINE
  8
LAYER_1
 40
0.1764
 41
0.1764
 62
3
 66
1
 10
0
 20
0
 30
0
  0
VERTEX
  8
LAYER_1
 10
38.3136
 20
-95.9074
  0
VERTEX
  8
LAYER_1
 10
39.3131
 20
-97.6385
  0
SEQEND
  0
POLYLINE
  8
LAYER_1
 40
0.1764
 41
0.1764
 62
3
 66
1
 10
0
 20
0
 30
0
  0
VERTEX
  8
LAYER_1
 10
44.3104
 20
-106.2942
  0
VERTEX
  8
LAYER_1
 10
36.3795
 20
-106.2958
  0
SEQEND
  0
POLYLINE
  8
LAYER_1
 40
0.1764
 41
0.1764
 62
3
 66
1
 10
0
 20
0
 30
0
  0
VERTEX
  8
LAYER_1
 10
43.311
 20
-104.563
  0
VERTEX
  8
LAYER_1
 10
35.6416
 20
-104.5604
  0
SEQEND
  0
POLYLINE
  8
LAYER_1
 40
0.1764
 41
0.1764
 62
3
 66
1
 10
0
 20
0
 30
0
  0
VERTEX
  8
LAYER_1
 10
42.3115
 20
-102.8319
  0
VERTEX
  8
LAYER_1
 10
34.722
 20
-102.8321
  0
SEQEND
  0
POLYLINE
  8
LAYER_1
 40
0.1764
 41
0.1764
 62
3
 66
1
 10
0
 20
0
 30
0
  0
VERTEX
  8
LAYER_1
 10
33.3128
 20
-101.1028
  0
VERTEX
  8
LAYER_1
 10
37.3107
 20
-108.0273
  0
SEQEND
  0
POLYLINE
  8
LAYER_1
 40
0.1764
 41
0.1764
 62
3
 66
1
 10
0
 20
0
 30
0
  0
VERTEX
  8
LAYER_1
 10
37.8076
 20
-108.024
  0
VERTEX
  8
LAYER_1
 10
37.3107
 20
-108.0273
  0
SEQEND
  0
POLYLINE
  8
LAYER_1
 40
0.1764
 41
0.1764
 62
3
 66
1
 10
0
 20
0
 30
0
  0
VERTEX
  8
LAYER_1
 10
35.6416
 20
-104.5604
  0
VERTEX
  8
LAYER_1
 10
35.3118
 20
-104.565
  0
SEQEND
  0
POLYLINE
  8
LAYER_1
 40
0.1764
 41
0.1764
 62
3
 66
1
 10
0
 20
0
 30
0
  0
VERTEX
  8
LAYER_1
 10
34.722
 20
-102.8321
  0
VERTEX
  8
LAYER_1
 10
34.3123
 20
-102.8339
  0
SEQEND
  0
POLYLINE
  8
LAYER_1
 40
0.1764
 41
0.1764
 62
3
 66
1
 10
0
 20
0
 30
0
  0
VERTEX
  8
LAYER_1
 10
37.3099
 20
-94.169
  0
VERTEX
  8
LAYER_1
 10
33.3128
 20
-101.1028
  0
SEQEND
  0
POLYLINE
  8
LAYER_1
 40
0.1764
 41
0.1764
 62
3
 66
1
 10
0
 20
0
 30
0
  0
VERTEX
  8
LAYER_1
 10
41.312
 20
-101.1008
  0
VERTEX
  8
LAYER_1
 10
33.3128
 20
-101.1028
  0
SEQEND
  0
POLYLINE
  8
LAYER_1
 40
0.1764
 41
0.1764
 62
3
 66
1
 10
0
 20
0
 30
0
  0
VERTEX
  8
LAYER_1
 10
40.3126
 20
-99.3697
  0
VERTEX
  8
LAYER_1
 10
39.3159
 20
-101.0992
  0
SEQEND
  0
POLYLINE
  8
LAYER_1
 40
0.1764
 41
0.1764
 62
3
 66
1
 10
0
 20
0
 30
0
  0
VERTEX
  8
LAYER_1
 10
39.3131
 20
-97.6385
  0
VERTEX
  8
LAYER_1
 10
37.3124
 20
-101.1018
  0
SEQEND
  0
POLYLINE
  8
LAYER_1
 40
0.1764
 41
0.1764
 62
3
 66
1
 10
0
 20
0
 30
0
  0
VERTEX
  8
LAYER_1
 10
38.3136
 20
-95.9074
  0
VERTEX
  8
LAYER_1
 10
35.3163
 20
-101.1002
  0
SEQEND
  0
ENDBLK
  0
BLOCK
  8
LAYER_1
  2
AIGNBL01020015
 70
64
 10
0
 20
0
 30
0
  3
AIGNBL01020015
  0
POLYLINE
  8
LAYER_1
 40
0.1764
 41
0.1764
 62
3
 66
1
 10
0
 20
0
 30
0
  0
VERTEX
  8
LAYER_1
 10
37.6992
 20
-93.5487
  0
VERTEX
  8
LAYER_1
 10
45.6992
 20
-79.6924
  0
VERTEX
  8
LAYER_1
 10
49.4493
 20
-86.1902
  0
SEQEND
  0
POLYLINE
  8
LAYER_1
 40
0.1764
 41
0.1764
 62
3
 66
1
 10
0
 20
0
 30
0
  0
VERTEX
  8
LAYER_1
 10
44.6997
 20
-81.4235
  0
VERTEX
  8
LAYER_1
 10
45.6992
 20
-79.6924
  0
SEQEND
  0
POLYLINE
  8
LAYER_1
 40
0.1764
 41
0.1764
 62
3
 66
1
 10
0
 20
0
 30
0
  0
VERTEX
  8
LAYER_1
 10
43.7003
 20
-83.1546
  0
VERTEX
  8
LAYER_1
 10
44.6997
 20
-81.4235
  0
SEQEND
  0
POLYLINE
  8
LAYER_1
 40
0.1764
 41
0.1764
 62
3
 66
1
 10
0
 20
0
 30
0
  0
VERTEX
  8
LAYER_1
 10
42.7008
 20
-84.8857
  0
VERTEX
  8
LAYER_1
 10
43.7003
 20
-83.1546
  0
SEQEND
  0
POLYLINE
  8
LAYER_1
 40
0.1764
 41
0.1764
 62
3
 66
1
 10
0
 20
0
 30
0
  0
VERTEX
  8
LAYER_1
 10
41.7014
 20
-86.6169
  0
VERTEX
  8
LAYER_1
 10
42.7008
 20
-84.8857
  0
SEQEND
  0
POLYLINE
  8
LAYER_1
 40
0.1764
 41
0.1764
 62
3
 66
1
 10
0
 20
0
 30
0
  0
VERTEX
  8
LAYER_1
 10
40.7019
 20
-88.348
  0
VERTEX
  8
LAYER_1
 10
41.7014
 20
-86.6169
  0
SEQEND
  0
POLYLINE
  8
LAYER_1
 40
0.1764
 41
0.1764
 62
3
 66
1
 10
0
 20
0
 30
0
  0
VERTEX
  8
LAYER_1
 10
39.7024
 20
-90.0791
  0
VERTEX
  8
LAYER_1
 10
40.7019
 20
-88.348
  0
SEQEND
  0
POLYLINE
  8
LAYER_1
 40
0.1764
 41
0.1764
 62
3
 66
1
 10
0
 20
0
 30
0
  0
VERTEX
  8
LAYER_1
 10
38.703
 20
-91.8102
  0
VERTEX
  8
LAYER_1
 10
39.7024
 20
-90.0791
  0
SEQEND
  0
POLYLINE
  8
LAYER_1
 40
0.1764
 41
0.1764
 62
3
 66
1
 10
0
 20
0
 30
0
  0
VERTEX
  8
LAYER_1
 10
44.6998
 20
-81.4235
  0
VERTEX
  8
LAYER_1
 10
48.6667
 20
-88.291
  0
SEQEND
  0
POLYLINE
  8
LAYER_1
 40
0.1764
 41
0.1764
 62
3
 66
1
 10
0
 20
0
 30
0
  0
VERTEX
  8
LAYER_1
 10
43.7003
 20
-83.1546
  0
VERTEX
  8
LAYER_1
 10
47.5327
 20
-89.7977
  0
SEQEND
  0
POLYLINE
  8
LAYER_1
 40
0.1764
 41
0.1764
 62
3
 66
1
 10
0
 20
0
 30
0
  0
VERTEX
  8
LAYER_1
 10
42.7008
 20
-84.8857
  0
VERTEX
  8
LAYER_1
 10
46.4957
 20
-91.4583
  0
SEQEND
  0
POLYLINE
  8
LAYER_1
 40
0.1764
 41
0.1764
 62
3
 66
1
 10
0
 20
0
 30
0
  0
VERTEX
  8
LAYER_1
 10
45.7027
 20
-93.5433
  0
VERTEX
  8
LAYER_1
 10
49.7006
 20
-86.6188
  0
SEQEND
  0
POLYLINE
  8
LAYER_1
 40
0.1764
 41
0.1764
 62
3
 66
1
 10
0
 20
0
 30
0
  0
VERTEX
  8
LAYER_1
 10
49.4493
 20
-86.1901
  0
VERTEX
  8
LAYER_1
 10
49.7006
 20
-86.6188
  0
SEQEND
  0
POLYLINE
  8
LAYER_1
 40
0.1764
 41
0.1764
 62
3
 66
1
 10
0
 20
0
 30
0
  0
VERTEX
  8
LAYER_1
 10
47.5327
 20
-89.7977
  0
VERTEX
  8
LAYER_1
 10
47.7016
 20
-90.0811
  0
SEQEND
  0
POLYLINE
  8
LAYER_1
 40
0.1764
 41
0.1764
 62
3
 66
1
 10
0
 20
0
 30
0
  0
VERTEX
  8
LAYER_1
 10
46.4957
 20
-91.4583
  0
VERTEX
  8
LAYER_1
 10
46.7022
 20
-91.8122
  0
SEQEND
  0
POLYLINE
  8
LAYER_1
 40
0.1764
 41
0.1764
 62
3
 66
1
 10
0
 20
0
 30
0
  0
VERTEX
  8
LAYER_1
 10
37.6993
 20
-93.5487
  0
VERTEX
  8
LAYER_1
 10
45.7027
 20
-93.5433
  0
SEQEND
  0
POLYLINE
  8
LAYER_1
 40
0.1764
 41
0.1764
 62
3
 66
1
 10
0
 20
0
 30
0
  0
VERTEX
  8
LAYER_1
 10
41.7014
 20
-86.6168
  0
VERTEX
  8
LAYER_1
 10
45.7027
 20
-93.5433
  0
SEQEND
  0
POLYLINE
  8
LAYER_1
 40
0.1764
 41
0.1764
 62
3
 66
1
 10
0
 20
0
 30
0
  0
VERTEX
  8
LAYER_1
 10
40.7019
 20
-88.348
  0
VERTEX
  8
LAYER_1
 10
42.698
 20
-88.3463
  0
SEQEND
  0
POLYLINE
  8
LAYER_1
 40
0.1764
 41
0.1764
 62
3
 66
1
 10
0
 20
0
 30
0
  0
VERTEX
  8
LAYER_1
 10
39.7024
 20
-90.0791
  0
VERTEX
  8
LAYER_1
 10
43.702
 20
-90.0801
  0
SEQEND
  0
POLYLINE
  8
LAYER_1
 40
0.1764
 41
0.1764
 62
3
 66
1
 10
0
 20
0
 30
0
  0
VERTEX
  8
LAYER_1
 10
38.703
 20
-91.8102
  0
VERTEX
  8
LAYER_1
 10
44.6987
 20
-91.8096
  0
SEQEND
  0
ENDBLK
  0
BLOCK
  8
LAYER_1
  2
AIGNBL01020018
 70
64
 10
0
 20
0
 30
0
  3
AIGNBL01020018
  0
POLYLINE
  8
LAYER_1
 40
0.1764
 41
0.1764
 62
3
 66
1
 10
0
 20
0
 30
0
  0
VERTEX
  8
LAYER_1
 10
24.1469
 20
-115.3924
  0
VERTEX
  8
LAYER_1
 10
8.147
 20
-115.3924
  0
VERTEX
  8
LAYER_1
 10
11.8992
 20
-108.8959
  0
SEQEND
  0
POLYLINE
  8
LAYER_1
 40
0.1764
 41
0.1764
 62
3
 66
1
 10
0
 20
0
 30
0
  0
VERTEX
  8
LAYER_1
 10
10.1459
 20
-115.3924
  0
VERTEX
  8
LAYER_1
 10
8.147
 20
-115.3924
  0
SEQEND
  0
POLYLINE
  8
LAYER_1
 40
0.1764
 41
0.1764
 62
3
 66
1
 10
0
 20
0
 30
0
  0
VERTEX
  8
LAYER_1
 10
12.1448
 20
-115.3924
  0
VERTEX
  8
LAYER_1
 10
10.1459
 20
-115.3924
  0
SEQEND
  0
POLYLINE
  8
LAYER_1
 40
0.1764
 41
0.1764
 62
3
 66
1
 10
0
 20
0
 30
0
  0
VERTEX
  8
LAYER_1
 10
14.1437
 20
-115.3924
  0
VERTEX
  8
LAYER_1
 10
12.1448
 20
-115.3924
  0
SEQEND
  0
POLYLINE
  8
LAYER_1
 40
0.1764
 41
0.1764
 62
3
 66
1
 10
0
 20
0
 30
0
  0
VERTEX
  8
LAYER_1
 10
16.1427
 20
-115.3924
  0
VERTEX
  8
LAYER_1
 10
14.1437
 20
-115.3924
  0
SEQEND
  0
POLYLINE
  8
LAYER_1
 40
0.1764
 41
0.1764
 62
3
 66
1
 10
0
 20
0
 30
0
  0
VERTEX
  8
LAYER_1
 10
18.1416
 20
-115.3924
  0
VERTEX
  8
LAYER_1
 10
16.1427
 20
-115.3924
  0
SEQEND
  0
POLYLINE
  8
LAYER_1
 40
0.1764
 41
0.1764
 62
3
 66
1
 10
0
 20
0
 30
0
  0
VERTEX
  8
LAYER_1
 10
20.1405
 20
-115.3924
  0
VERTEX
  8
LAYER_1
 10
18.1416
 20
-115.3924
  0
SEQEND
  0
POLYLINE
  8
LAYER_1
 40
0.1764
 41
0.1764
 62
3
 66
1
 10
0
 20
0
 30
0
  0
VERTEX
  8
LAYER_1
 10
22.1395
 20
-115.3924
  0
VERTEX
  8
LAYER_1
 10
20.1405
 20
-115.3924
  0
SEQEND
  0
POLYLINE
  8
LAYER_1
 40
0.1764
 41
0.1764
 62
3
 66
1
 10
0
 20
0
 30
0
  0
VERTEX
  8
LAYER_1
 10
10.1459
 20
-115.3924
  0
VERTEX
  8
LAYER_1
 10
14.1098
 20
-108.5232
  0
SEQEND
  0
POLYLINE
  8
LAYER_1
 40
0.1764
 41
0.1764
 62
3
 66
1
 10
0
 20
0
 30
0
  0
VERTEX
  8
LAYER_1
 10
12.1448
 20
-115.3924
  0
VERTEX
  8
LAYER_1
 10
15.9817
 20
-108.7519
  0
SEQEND
  0
POLYLINE
  8
LAYER_1
 40
0.1764
 41
0.1764
 62
3
 66
1
 10
0
 20
0
 30
0
  0
VERTEX
  8
LAYER_1
 10
14.1437
 20
-115.3924
  0
VERTEX
  8
LAYER_1
 10
17.9383
 20
-108.8196
  0
SEQEND
  0
POLYLINE
  8
LAYER_1
 40
0.1764
 41
0.1764
 62
3
 66
1
 10
0
 20
0
 30
0
  0
VERTEX
  8
LAYER_1
 10
20.1405
 20
-108.4639
  0
VERTEX
  8
LAYER_1
 10
12.1448
 20
-108.4639
  0
SEQEND
  0
POLYLINE
  8
LAYER_1
 40
0.1764
 41
0.1764
 62
3
 66
1
 10
0
 20
0
 30
0
  0
VERTEX
  8
LAYER_1
 10
11.8991
 20
-108.8959
  0
VERTEX
  8
LAYER_1
 10
12.1448
 20
-108.4639
  0
SEQEND
  0
POLYLINE
  8
LAYER_1
 40
0.1764
 41
0.1764
 62
3
 66
1
 10
0
 20
0
 30
0
  0
VERTEX
  8
LAYER_1
 10
15.9817
 20
-108.7519
  0
VERTEX
  8
LAYER_1
 10
16.1426
 20
-108.4639
  0
SEQEND
  0
POLYLINE
  8
LAYER_1
 40
0.1764
 41
0.1764
 62
3
 66
1
 10
0
 20
0
 30
0
  0
VERTEX
  8
LAYER_1
 10
17.9383
 20
-108.8196
  0
VERTEX
  8
LAYER_1
 10
18.1416
 20
-108.4639
  0
SEQEND
  0
POLYLINE
  8
LAYER_1
 40
0.1764
 41
0.1764
 62
3
 66
1
 10
0
 20
0
 30
0
  0
VERTEX
  8
LAYER_1
 10
24.1468
 20
-115.3924
  0
VERTEX
  8
LAYER_1
 10
20.1405
 20
-108.4639
  0
SEQEND
  0
POLYLINE
  8
LAYER_1
 40
0.1764
 41
0.1764
 62
3
 66
1
 10
0
 20
0
 30
0
  0
VERTEX
  8
LAYER_1
 10
16.1426
 20
-115.3924
  0
VERTEX
  8
LAYER_1
 10
20.1405
 20
-108.4639
  0
SEQEND
  0
POLYLINE
  8
LAYER_1
 40
0.1764
 41
0.1764
 62
3
 66
1
 10
0
 20
0
 30
0
  0
VERTEX
  8
LAYER_1
 10
18.1416
 20
-115.3924
  0
VERTEX
  8
LAYER_1
 10
17.1421
 20
-113.6645
  0
SEQEND
  0
POLYLINE
  8
LAYER_1
 40
0.1764
 41
0.1764
 62
3
 66
1
 10
0
 20
0
 30
0
  0
VERTEX
  8
LAYER_1
 10
20.1405
 20
-115.3924
  0
VERTEX
  8
LAYER_1
 10
18.1416
 20
-111.9282
  0
SEQEND
  0
POLYLINE
  8
LAYER_1
 40
0.1764
 41
0.1764
 62
3
 66
1
 10
0
 20
0
 30
0
  0
VERTEX
  8
LAYER_1
 10
22.1394
 20
-115.3924
  0
VERTEX
  8
LAYER_1
 10
19.141
 20
-110.2003
  0
SEQEND
  0
ENDBLK
  0
BLOCK
  8
LAYER_1
  2
AIGNBL0102001B
 70
64
 10
0
 20
0
 30
0
  3
AIGNBL0102001B
  0
POLYLINE
  8
LAYER_1
 40
0.1764
 41
0.1764
 62
3
 66
1
 10
0
 20
0
 30
0
  0
VERTEX
  8
LAYER_1
 10
24.5711
 20
-116.0735
  0
VERTEX
  8
LAYER_1
 10
32.5711
 20
-129.9298
  0
VERTEX
  8
LAYER_1
 10
25.0688
 20
-129.9285
  0
SEQEND
  0
POLYLINE
  8
LAYER_1
 40
0.1764
 41
0.1764
 62
3
 66
1
 10
0
 20
0
 30
0
  0
VERTEX
  8
LAYER_1
 10
31.5716
 20
-128.1987
  0
VERTEX
  8
LAYER_1
 10
32.5711
 20
-129.9298
  0
SEQEND
  0
POLYLINE
  8
LAYER_1
 40
0.1764
 41
0.1764
 62
3
 66
1
 10
0
 20
0
 30
0
  0
VERTEX
  8
LAYER_1
 10
30.5721
 20
-126.4676
  0
VERTEX
  8
LAYER_1
 10
31.5716
 20
-128.1987
  0
SEQEND
  0
POLYLINE
  8
LAYER_1
 40
0.1764
 41
0.1764
 62
3
 66
1
 10
0
 20
0
 30
0
  0
VERTEX
  8
LAYER_1
 10
29.5727
 20
-124.7364
  0
VERTEX
  8
LAYER_1
 10
30.5721
 20
-126.4676
  0
SEQEND
  0
POLYLINE
  8
LAYER_1
 40
0.1764
 41
0.1764
 62
3
 66
1
 10
0
 20
0
 30
0
  0
VERTEX
  8
LAYER_1
 10
28.5732
 20
-123.0053
  0
VERTEX
  8
LAYER_1
 10
29.5727
 20
-124.7364
  0
SEQEND
  0
POLYLINE
  8
LAYER_1
 40
0.1764
 41
0.1764
 62
3
 66
1
 10
0
 20
0
 30
0
  0
VERTEX
  8
LAYER_1
 10
27.5737
 20
-121.2742
  0
VERTEX
  8
LAYER_1
 10
28.5732
 20
-123.0053
  0
SEQEND
  0
POLYLINE
  8
LAYER_1
 40
0.1764
 41
0.1764
 62
3
 66
1
 10
0
 20
0
 30
0
  0
VERTEX
  8
LAYER_1
 10
26.5743
 20
-119.5431
  0
VERTEX
  8
LAYER_1
 10
27.5737
 20
-121.2742
  0
SEQEND
  0
POLYLINE
  8
LAYER_1
 40
0.1764
 41
0.1764
 62
3
 66
1
 10
0
 20
0
 30
0
  0
VERTEX
  8
LAYER_1
 10
25.5748
 20
-117.8119
  0
VERTEX
  8
LAYER_1
 10
26.5743
 20
-119.5431
  0
SEQEND
  0
POLYLINE
  8
LAYER_1
 40
0.1764
 41
0.1764
 62
3
 66
1
 10
0
 20
0
 30
0
  0
VERTEX
  8
LAYER_1
 10
31.5716
 20
-128.1987
  0
VERTEX
  8
LAYER_1
 10
23.6407
 20
-128.2004
  0
SEQEND
  0
POLYLINE
  8
LAYER_1
 40
0.1764
 41
0.1764
 62
3
 66
1
 10
0
 20
0
 30
0
  0
VERTEX
  8
LAYER_1
 10
30.5722
 20
-126.4676
  0
VERTEX
  8
LAYER_1
 10
22.9028
 20
-126.465
  0
SEQEND
  0
POLYLINE
  8
LAYER_1
 40
0.1764
 41
0.1764
 62
3
 66
1
 10
0
 20
0
 30
0
  0
VERTEX
  8
LAYER_1
 10
29.5727
 20
-124.7365
  0
VERTEX
  8
LAYER_1
 10
21.9832
 20
-124.7366
  0
SEQEND
  0
POLYLINE
  8
LAYER_1
 40
0.1764
 41
0.1764
 62
3
 66
1
 10
0
 20
0
 30
0
  0
VERTEX
  8
LAYER_1
 10
20.574
 20
-123.0073
  0
VERTEX
  8
LAYER_1
 10
24.5719
 20
-129.9318
  0
SEQEND
  0
POLYLINE
  8
LAYER_1
 40
0.1764
 41
0.1764
 62
3
 66
1
 10
0
 20
0
 30
0
  0
VERTEX
  8
LAYER_1
 10
25.0688
 20
-129.9286
  0
VERTEX
  8
LAYER_1
 10
24.5719
 20
-129.9318
  0
SEQEND
  0
POLYLINE
  8
LAYER_1
 40
0.1764
 41
0.1764
 62
3
 66
1
 10
0
 20
0
 30
0
  0
VERTEX
  8
LAYER_1
 10
22.9028
 20
-126.465
  0
VERTEX
  8
LAYER_1
 10
22.573
 20
-126.4696
  0
SEQEND
  0
POLYLINE
  8
LAYER_1
 40
0.1764
 41
0.1764
 62
3
 66
1
 10
0
 20
0
 30
0
  0
VERTEX
  8
LAYER_1
 10
21.9832
 20
-124.7366
  0
VERTEX
  8
LAYER_1
 10
21.5735
 20
-124.7385
  0
SEQEND
  0
POLYLINE
  8
LAYER_1
 40
0.1764
 41
0.1764
 62
3
 66
1
 10
0
 20
0
 30
0
  0
VERTEX
  8
LAYER_1
 10
24.5711
 20
-116.0735
  0
VERTEX
  8
LAYER_1
 10
20.574
 20
-123.0073
  0
SEQEND
  0
POLYLINE
  8
LAYER_1
 40
0.1764
 41
0.1764
 62
3
 66
1
 10
0
 20
0
 30
0
  0
VERTEX
  8
LAYER_1
 10
28.5732
 20
-123.0053
  0
VERTEX
  8
LAYER_1
 10
20.574
 20
-123.0073
  0
SEQEND
  0
POLYLINE
  8
LAYER_1
 40
0.1764
 41
0.1764
 62
3
 66
1
 10
0
 20
0
 30
0
  0
VERTEX
  8
LAYER_1
 10
27.5738
 20
-121.2742
  0
VERTEX
  8
LAYER_1
 10
26.5771
 20
-123.0037
  0
SEQEND
  0
POLYLINE
  8
LAYER_1
 40
0.1764
 41
0.1764
 62
3
 66
1
 10
0
 20
0
 30
0
  0
VERTEX
  8
LAYER_1
 10
26.5743
 20
-119.5431
  0
VERTEX
  8
LAYER_1
 10
24.5736
 20
-123.0063
  0
SEQEND
  0
POLYLINE
  8
LAYER_1
 40
0.1764
 41
0.1764
 62
3
 66
1
 10
0
 20
0
 30
0
  0
VERTEX
  8
LAYER_1
 10
25.5748
 20
-117.812
  0
VERTEX
  8
LAYER_1
 10
22.5775
 20
-123.0047
  0
SEQEND
  0
ENDBLK
  0
BLOCK
  8
LAYER_1
  2
AIGNBL0102001E
 70
64
 10
0
 20
0
 30
0
  3
AIGNBL0102001E
  0
POLYLINE
  8
LAYER_1
 40
0.1764
 41
0.1764
 62
3
 66
1
 10
0
 20
0
 30
0
  0
VERTEX
  8
LAYER_1
 10
24.9604
 20
-115.4533
  0
VERTEX
  8
LAYER_1
 10
32.9604
 20
-101.5969
  0
VERTEX
  8
LAYER_1
 10
36.7104
 20
-108.0947
  0
SEQEND
  0
POLYLINE
  8
LAYER_1
 40
0.1764
 41
0.1764
 62
3
 66
1
 10
0
 20
0
 30
0
  0
VERTEX
  8
LAYER_1
 10
31.9609
 20
-103.328
  0
VERTEX
  8
LAYER_1
 10
32.9604
 20
-101.5969
  0
SEQEND
  0
POLYLINE
  8
LAYER_1
 40
0.1764
 41
0.1764
 62
3
 66
1
 10
0
 20
0
 30
0
  0
VERTEX
  8
LAYER_1
 10
30.9615
 20
-105.0592
  0
VERTEX
  8
LAYER_1
 10
31.9609
 20
-103.328
  0
SEQEND
  0
POLYLINE
  8
LAYER_1
 40
0.1764
 41
0.1764
 62
3
 66
1
 10
0
 20
0
 30
0
  0
VERTEX
  8
LAYER_1
 10
29.962
 20
-106.7903
  0
VERTEX
  8
LAYER_1
 10
30.9615
 20
-105.0592
  0
SEQEND
  0
POLYLINE
  8
LAYER_1
 40
0.1764
 41
0.1764
 62
3
 66
1
 10
0
 20
0
 30
0
  0
VERTEX
  8
LAYER_1
 10
28.9625
 20
-108.5214
  0
VERTEX
  8
LAYER_1
 10
29.962
 20
-106.7903
  0
SEQEND
  0
POLYLINE
  8
LAYER_1
 40
0.1764
 41
0.1764
 62
3
 66
1
 10
0
 20
0
 30
0
  0
VERTEX
  8
LAYER_1
 10
27.9631
 20
-110.2525
  0
VERTEX
  8
LAYER_1
 10
28.9625
 20
-108.5214
  0
SEQEND
  0
POLYLINE
  8
LAYER_1
 40
0.1764
 41
0.1764
 62
3
 66
1
 10
0
 20
0
 30
0
  0
VERTEX
  8
LAYER_1
 10
26.9636
 20
-111.9837
  0
VERTEX
  8
LAYER_1
 10
27.9631
 20
-110.2525
  0
SEQEND
  0
POLYLINE
  8
LAYER_1
 40
0.1764
 41
0.1764
 62
3
 66
1
 10
0
 20
0
 30
0
  0
VERTEX
  8
LAYER_1
 10
25.9641
 20
-113.7148
  0
VERTEX
  8
LAYER_1
 10
26.9636
 20
-111.9837
  0
SEQEND
  0
POLYLINE
  8
LAYER_1
 40
0.1764
 41
0.1764
 62
3
 66
1
 10
0
 20
0
 30
0
  0
VERTEX
  8
LAYER_1
 10
31.9609
 20
-103.328
  0
VERTEX
  8
LAYER_1
 10
35.9279
 20
-110.1955
  0
SEQEND
  0
POLYLINE
  8
LAYER_1
 40
0.1764
 41
0.1764
 62
3
 66
1
 10
0
 20
0
 30
0
  0
VERTEX
  8
LAYER_1
 10
30.9615
 20
-105.0591
  0
VERTEX
  8
LAYER_1
 10
34.7939
 20
-111.7023
  0
SEQEND
  0
POLYLINE
  8
LAYER_1
 40
0.1764
 41
0.1764
 62
3
 66
1
 10
0
 20
0
 30
0
  0
VERTEX
  8
LAYER_1
 10
29.962
 20
-106.7903
  0
VERTEX
  8
LAYER_1
 10
33.7569
 20
-113.3629
  0
SEQEND
  0
POLYLINE
  8
LAYER_1
 40
0.1764
 41
0.1764
 62
3
 66
1
 10
0
 20
0
 30
0
  0
VERTEX
  8
LAYER_1
 10
32.9639
 20
-115.4479
  0
VERTEX
  8
LAYER_1
 10
36.9617
 20
-108.5234
  0
SEQEND
  0
POLYLINE
  8
LAYER_1
 40
0.1764
 41
0.1764
 62
3
 66
1
 10
0
 20
0
 30
0
  0
VERTEX
  8
LAYER_1
 10
36.7105
 20
-108.0947
  0
VERTEX
  8
LAYER_1
 10
36.9617
 20
-108.5234
  0
SEQEND
  0
POLYLINE
  8
LAYER_1
 40
0.1764
 41
0.1764
 62
3
 66
1
 10
0
 20
0
 30
0
  0
VERTEX
  8
LAYER_1
 10
34.7939
 20
-111.7023
  0
VERTEX
  8
LAYER_1
 10
34.9628
 20
-111.9856
  0
SEQEND
  0
POLYLINE
  8
LAYER_1
 40
0.1764
 41
0.1764
 62
3
 66
1
 10
0
 20
0
 30
0
  0
VERTEX
  8
LAYER_1
 10
33.7569
 20
-113.3628
  0
VERTEX
  8
LAYER_1
 10
33.9634
 20
-113.7168
  0
SEQEND
  0
POLYLINE
  8
LAYER_1
 40
0.1764
 41
0.1764
 62
3
 66
1
 10
0
 20
0
 30
0
  0
VERTEX
  8
LAYER_1
 10
24.9605
 20
-115.4532
  0
VERTEX
  8
LAYER_1
 10
32.9639
 20
-115.4479
  0
SEQEND
  0
POLYLINE
  8
LAYER_1
 40
0.1764
 41
0.1764
 62
3
 66
1
 10
0
 20
0
 30
0
  0
VERTEX
  8
LAYER_1
 10
28.9626
 20
-108.5214
  0
VERTEX
  8
LAYER_1
 10
32.9639
 20
-115.4479
  0
SEQEND
  0
POLYLINE
  8
LAYER_1
 40
0.1764
 41
0.1764
 62
3
 66
1
 10
0
 20
0
 30
0
  0
VERTEX
  8
LAYER_1
 10
27.9631
 20
-110.2525
  0
VERTEX
  8
LAYER_1
 10
29.9592
 20
-110.2509
  0
SEQEND
  0
POLYLINE
  8
LAYER_1
 40
0.1764
 41
0.1764
 62
3
 66
1
 10
0
 20
0
 30
0
  0
VERTEX
  8
LAYER_1
 10
26.9636
 20
-111.9836
  0
VERTEX
  8
LAYER_1
 10
30.9632
 20
-111.9846
  0
SEQEND
  0
POLYLINE
  8
LAYER_1
 40
0.1764
 41
0.1764
 62
3
 66
1
 10
0
 20
0
 30
0
  0
VERTEX
  8
LAYER_1
 10
25.9642
 20
-113.7148
  0
VERTEX
  8
LAYER_1
 10
31.9599
 20
-113.7141
  0
SEQEND
  0
ENDBLK
  0
BLOCK
  8
LAYER_1
  2
AIGNBL01020021
 70
64
 10
0
 20
0
 30
0
  3
AIGNBL01020021
  0
POLYLINE
  8
LAYER_1
 40
0.1764
 41
0.1764
 62
3
 66
1
 10
0
 20
0
 30
0
  0
VERTEX
  8
LAYER_1
 10
49.7245
 20
-115.7031
  0
VERTEX
  8
LAYER_1
 10
33.7246
 20
-115.7031
  0
VERTEX
  8
LAYER_1
 10
37.4768
 20
-109.2066
  0
SEQEND
  0
POLYLINE
  8
LAYER_1
 40
0.1764
 41
0.1764
 62
3
 66
1
 10
0
 20
0
 30
0
  0
VERTEX
  8
LAYER_1
 10
35.7235
 20
-115.7031
  0
VERTEX
  8
LAYER_1
 10
33.7246
 20
-115.7031
  0
SEQEND
  0
POLYLINE
  8
LAYER_1
 40
0.1764
 41
0.1764
 62
3
 66
1
 10
0
 20
0
 30
0
  0
VERTEX
  8
LAYER_1
 10
37.7224
 20
-115.7031
  0
VERTEX
  8
LAYER_1
 10
35.7235
 20
-115.7031
  0
SEQEND
  0
POLYLINE
  8
LAYER_1
 40
0.1764
 41
0.1764
 62
3
 66
1
 10
0
 20
0
 30
0
  0
VERTEX
  8
LAYER_1
 10
39.7214
 20
-115.7031
  0
VERTEX
  8
LAYER_1
 10
37.7224
 20
-115.7031
  0
SEQEND
  0
POLYLINE
  8
LAYER_1
 40
0.1764
 41
0.1764
 62
3
 66
1
 10
0
 20
0
 30
0
  0
VERTEX
  8
LAYER_1
 10
41.7203
 20
-115.7031
  0
VERTEX
  8
LAYER_1
 10
39.7214
 20
-115.7031
  0
SEQEND
  0
POLYLINE
  8
LAYER_1
 40
0.1764
 41
0.1764
 62
3
 66
1
 10
0
 20
0
 30
0
  0
VERTEX
  8
LAYER_1
 10
43.7192
 20
-115.7031
  0
VERTEX
  8
LAYER_1
 10
41.7203
 20
-115.7031
  0
SEQEND
  0
POLYLINE
  8
LAYER_1
 40
0.1764
 41
0.1764
 62
3
 66
1
 10
0
 20
0
 30
0
  0
VERTEX
  8
LAYER_1
 10
45.7182
 20
-115.7031
  0
VERTEX
  8
LAYER_1
 10
43.7192
 20
-115.7031
  0
SEQEND
  0
POLYLINE
  8
LAYER_1
 40
0.1764
 41
0.1764
 62
3
 66
1
 10
0
 20
0
 30
0
  0
VERTEX
  8
LAYER_1
 10
47.7171
 20
-115.7031
  0
VERTEX
  8
LAYER_1
 10
45.7182
 20
-115.7031
  0
SEQEND
  0
POLYLINE
  8
LAYER_1
 40
0.1764
 41
0.1764
 62
3
 66
1
 10
0
 20
0
 30
0
  0
VERTEX
  8
LAYER_1
 10
35.7235
 20
-115.7031
  0
VERTEX
  8
LAYER_1
 10
39.6875
 20
-108.8339
  0
SEQEND
  0
POLYLINE
  8
LAYER_1
 40
0.1764
 41
0.1764
 62
3
 66
1
 10
0
 20
0
 30
0
  0
VERTEX
  8
LAYER_1
 10
37.7224
 20
-115.7031
  0
VERTEX
  8
LAYER_1
 10
41.5593
 20
-109.0626
  0
SEQEND
  0
POLYLINE
  8
LAYER_1
 40
0.1764
 41
0.1764
 62
3
 66
1
 10
0
 20
0
 30
0
  0
VERTEX
  8
LAYER_1
 10
39.7213
 20
-115.7031
  0
VERTEX
  8
LAYER_1
 10
43.5159
 20
-109.1304
  0
SEQEND
  0
POLYLINE
  8
LAYER_1
 40
0.1764
 41
0.1764
 62
3
 66
1
 10
0
 20
0
 30
0
  0
VERTEX
  8
LAYER_1
 10
45.7181
 20
-108.7746
  0
VERTEX
  8
LAYER_1
 10
37.7224
 20
-108.7746
  0
SEQEND
  0
POLYLINE
  8
LAYER_1
 40
0.1764
 41
0.1764
 62
3
 66
1
 10
0
 20
0
 30
0
  0
VERTEX
  8
LAYER_1
 10
37.4768
 20
-109.2066
  0
VERTEX
  8
LAYER_1
 10
37.7224
 20
-108.7746
  0
SEQEND
  0
POLYLINE
  8
LAYER_1
 40
0.1764
 41
0.1764
 62
3
 66
1
 10
0
 20
0
 30
0
  0
VERTEX
  8
LAYER_1
 10
41.5593
 20
-109.0626
  0
VERTEX
  8
LAYER_1
 10
41.7203
 20
-108.7746
  0
SEQEND
  0
POLYLINE
  8
LAYER_1
 40
0.1764
 41
0.1764
 62
3
 66
1
 10
0
 20
0
 30
0
  0
VERTEX
  8
LAYER_1
 10
43.5159
 20
-109.1304
  0
VERTEX
  8
LAYER_1
 10
43.7192
 20
-108.7746
  0
SEQEND
  0
POLYLINE
  8
LAYER_1
 40
0.1764
 41
0.1764
 62
3
 66
1
 10
0
 20
0
 30
0
  0
VERTEX
  8
LAYER_1
 10
49.7245
 20
-115.7031
  0
VERTEX
  8
LAYER_1
 10
45.7181
 20
-108.7746
  0
SEQEND
  0
POLYLINE
  8
LAYER_1
 40
0.1764
 41
0.1764
 62
3
 66
1
 10
0
 20
0
 30
0
  0
VERTEX
  8
LAYER_1
 10
41.7203
 20
-115.7031
  0
VERTEX
  8
LAYER_1
 10
45.7181
 20
-108.7746
  0
SEQEND
  0
POLYLINE
  8
LAYER_1
 40
0.1764
 41
0.1764
 62
3
 66
1
 10
0
 20
0
 30
0
  0
VERTEX
  8
LAYER_1
 10
43.7192
 20
-115.7031
  0
VERTEX
  8
LAYER_1
 10
42.7197
 20
-113.9752
  0
SEQEND
  0
POLYLINE
  8
LAYER_1
 40
0.1764
 41
0.1764
 62
3
 66
1
 10
0
 20
0
 30
0
  0
VERTEX
  8
LAYER_1
 10
45.7181
 20
-115.7031
  0
VERTEX
  8
LAYER_1
 10
43.7192
 20
-112.2389
  0
SEQEND
  0
POLYLINE
  8
LAYER_1
 40
0.1764
 41
0.1764
 62
3
 66
1
 10
0
 20
0
 30
0
  0
VERTEX
  8
LAYER_1
 10
47.7171
 20
-115.7031
  0
VERTEX
  8
LAYER_1
 10
44.7187
 20
-110.511
  0
SEQEND
  0
ENDBLK
  0
BLOCK
  8
LAYER_1
  2
AIGNBL01020024
 70
64
 10
0
 20
0
 30
0
  3
AIGNBL01020024
  0
POLYLINE
  8
LAYER_1
 40
0.1764
 41
0.1764
 62
3
 66
1
 10
0
 20
0
 30
0
  0
VERTEX
  8
LAYER_1
 10
50.1487
 20
-116.3842
  0
VERTEX
  8
LAYER_1
 10
58.1487
 20
-130.2405
  0
VERTEX
  8
LAYER_1
 10
50.6464
 20
-130.2392
  0
SEQEND
  0
POLYLINE
  8
LAYER_1
 40
0.1764
 41
0.1764
 62
3
 66
1
 10
0
 20
0
 30
0
  0
VERTEX
  8
LAYER_1
 10
57.1492
 20
-128.5094
  0
VERTEX
  8
LAYER_1
 10
58.1487
 20
-130.2405
  0
SEQEND
  0
POLYLINE
  8
LAYER_1
 40
0.1764
 41
0.1764
 62
3
 66
1
 10
0
 20
0
 30
0
  0
VERTEX
  8
LAYER_1
 10
56.1498
 20
-126.7783
  0
VERTEX
  8
LAYER_1
 10
57.1492
 20
-128.5094
  0
SEQEND
  0
POLYLINE
  8
LAYER_1
 40
0.1764
 41
0.1764
 62
3
 66
1
 10
0
 20
0
 30
0
  0
VERTEX
  8
LAYER_1
 10
55.1503
 20
-125.0471
  0
VERTEX
  8
LAYER_1
 10
56.1498
 20
-126.7783
  0
SEQEND
  0
POLYLINE
  8
LAYER_1
 40
0.1764
 41
0.1764
 62
3
 66
1
 10
0
 20
0
 30
0
  0
VERTEX
  8
LAYER_1
 10
54.1508
 20
-123.316
  0
VERTEX
  8
LAYER_1
 10
55.1503
 20
-125.0471
  0
SEQEND
  0
POLYLINE
  8
LAYER_1
 40
0.1764
 41
0.1764
 62
3
 66
1
 10
0
 20
0
 30
0
  0
VERTEX
  8
LAYER_1
 10
53.1514
 20
-121.5849
  0
VERTEX
  8
LAYER_1
 10
54.1508
 20
-123.316
  0
SEQEND
  0
POLYLINE
  8
LAYER_1
 40
0.1764
 41
0.1764
 62
3
 66
1
 10
0
 20
0
 30
0
  0
VERTEX
  8
LAYER_1
 10
52.1519
 20
-119.8538
  0
VERTEX
  8
LAYER_1
 10
53.1514
 20
-121.5849
  0
SEQEND
  0
POLYLINE
  8
LAYER_1
 40
0.1764
 41
0.1764
 62
3
 66
1
 10
0
 20
0
 30
0
  0
VERTEX
  8
LAYER_1
 10
51.1524
 20
-118.1226
  0
VERTEX
  8
LAYER_1
 10
52.1519
 20
-119.8538
  0
SEQEND
  0
POLYLINE
  8
LAYER_1
 40
0.1764
 41
0.1764
 62
3
 66
1
 10
0
 20
0
 30
0
  0
VERTEX
  8
LAYER_1
 10
57.1492
 20
-128.5094
  0
VERTEX
  8
LAYER_1
 10
49.2183
 20
-128.5111
  0
SEQEND
  0
POLYLINE
  8
LAYER_1
 40
0.1764
 41
0.1764
 62
3
 66
1
 10
0
 20
0
 30
0
  0
VERTEX
  8
LAYER_1
 10
56.1498
 20
-126.7783
  0
VERTEX
  8
LAYER_1
 10
48.4804
 20
-126.7757
  0
SEQEND
  0
POLYLINE
  8
LAYER_1
 40
0.1764
 41
0.1764
 62
3
 66
1
 10
0
 20
0
 30
0
  0
VERTEX
  8
LAYER_1
 10
55.1503
 20
-125.0472
  0
VERTEX
  8
LAYER_1
 10
47.5608
 20
-125.0473
  0
SEQEND
  0
POLYLINE
  8
LAYER_1
 40
0.1764
 41
0.1764
 62
3
 66
1
 10
0
 20
0
 30
0
  0
VERTEX
  8
LAYER_1
 10
46.1517
 20
-123.318
  0
VERTEX
  8
LAYER_1
 10
50.1495
 20
-130.2425
  0
SEQEND
  0
POLYLINE
  8
LAYER_1
 40
0.1764
 41
0.1764
 62
3
 66
1
 10
0
 20
0
 30
0
  0
VERTEX
  8
LAYER_1
 10
50.6464
 20
-130.2393
  0
VERTEX
  8
LAYER_1
 10
50.1495
 20
-130.2425
  0
SEQEND
  0
POLYLINE
  8
LAYER_1
 40
0.1764
 41
0.1764
 62
3
 66
1
 10
0
 20
0
 30
0
  0
VERTEX
  8
LAYER_1
 10
48.4805
 20
-126.7757
  0
VERTEX
  8
LAYER_1
 10
48.1506
 20
-126.7803
  0
SEQEND
  0
POLYLINE
  8
LAYER_1
 40
0.1764
 41
0.1764
 62
3
 66
1
 10
0
 20
0
 30
0
  0
VERTEX
  8
LAYER_1
 10
47.5608
 20
-125.0473
  0
VERTEX
  8
LAYER_1
 10
47.1511
 20
-125.0492
  0
SEQEND
  0
POLYLINE
  8
LAYER_1
 40
0.1764
 41
0.1764
 62
3
 66
1
 10
0
 20
0
 30
0
  0
VERTEX
  8
LAYER_1
 10
50.1487
 20
-116.3842
  0
VERTEX
  8
LAYER_1
 10
46.1517
 20
-123.318
  0
SEQEND
  0
POLYLINE
  8
LAYER_1
 40
0.1764
 41
0.1764
 62
3
 66
1
 10
0
 20
0
 30
0
  0
VERTEX
  8
LAYER_1
 10
54.1509
 20
-123.316
  0
VERTEX
  8
LAYER_1
 10
46.1517
 20
-123.318
  0
SEQEND
  0
POLYLINE
  8
LAYER_1
 40
0.1764
 41
0.1764
 62
3
 66
1
 10
0
 20
0
 30
0
  0
VERTEX
  8
LAYER_1
 10
53.1514
 20
-121.5849
  0
VERTEX
  8
LAYER_1
 10
52.1547
 20
-123.3144
  0
SEQEND
  0
POLYLINE
  8
LAYER_1
 40
0.1764
 41
0.1764
 62
3
 66
1
 10
0
 20
0
 30
0
  0
VERTEX
  8
LAYER_1
 10
52.1519
 20
-119.8538
  0
VERTEX
  8
LAYER_1
 10
50.1513
 20
-123.317
  0
SEQEND
  0
POLYLINE
  8
LAYER_1
 40
0.1764
 41
0.1764
 62
3
 66
1
 10
0
 20
0
 30
0
  0
VERTEX
  8
LAYER_1
 10
51.1525
 20
-118.1227
  0
VERTEX
  8
LAYER_1
 10
48.1551
 20
-123.3154
  0
SEQEND
  0
ENDBLK
  0
BLOCK
  8
LAYER_1
  2
AIGNBL01020027
 70
64
 10
0
 20
0
 30
0
  3
AIGNBL01020027
  0
POLYLINE
  8
LAYER_1
 40
0.1764
 41
0.1764
 62
3
 66
1
 10
0
 20
0
 30
0
  0
VERTEX
  8
LAYER_1
 10
50.5381
 20
-115.764
  0
VERTEX
  8
LAYER_1
 10
58.538
 20
-101.9076
  0
VERTEX
  8
LAYER_1
 10
62.2881
 20
-108.4054
  0
SEQEND
  0
POLYLINE
  8
LAYER_1
 40
0.1764
 41
0.1764
 62
3
 66
1
 10
0
 20
0
 30
0
  0
VERTEX
  8
LAYER_1
 10
57.5386
 20
-103.6387
  0
VERTEX
  8
LAYER_1
 10
58.538
 20
-101.9076
  0
SEQEND
  0
POLYLINE
  8
LAYER_1
 40
0.1764
 41
0.1764
 62
3
 66
1
 10
0
 20
0
 30
0
  0
VERTEX
  8
LAYER_1
 10
56.5391
 20
-105.3699
  0
VERTEX
  8
LAYER_1
 10
57.5386
 20
-103.6387
  0
SEQEND
  0
POLYLINE
  8
LAYER_1
 40
0.1764
 41
0.1764
 62
3
 66
1
 10
0
 20
0
 30
0
  0
VERTEX
  8
LAYER_1
 10
55.5396
 20
-107.101
  0
VERTEX
  8
LAYER_1
 10
56.5391
 20
-105.3699
  0
SEQEND
  0
POLYLINE
  8
LAYER_1
 40
0.1764
 41
0.1764
 62
3
 66
1
 10
0
 20
0
 30
0
  0
VERTEX
  8
LAYER_1
 10
54.5402
 20
-108.8321
  0
VERTEX
  8
LAYER_1
 10
55.5396
 20
-107.101
  0
SEQEND
  0
POLYLINE
  8
LAYER_1
 40
0.1764
 41
0.1764
 62
3
 66
1
 10
0
 20
0
 30
0
  0
VERTEX
  8
LAYER_1
 10
53.5407
 20
-110.5632
  0
VERTEX
  8
LAYER_1
 10
54.5402
 20
-108.8321
  0
SEQEND
  0
POLYLINE
  8
LAYER_1
 40
0.1764
 41
0.1764
 62
3
 66
1
 10
0
 20
0
 30
0
  0
VERTEX
  8
LAYER_1
 10
52.5412
 20
-112.2944
  0
VERTEX
  8
LAYER_1
 10
53.5407
 20
-110.5632
  0
SEQEND
  0
POLYLINE
  8
LAYER_1
 40
0.1764
 41
0.1764
 62
3
 66
1
 10
0
 20
0
 30
0
  0
VERTEX
  8
LAYER_1
 10
51.5418
 20
-114.0255
  0
VERTEX
  8
LAYER_1
 10
52.5412
 20
-112.2944
  0
SEQEND
  0
POLYLINE
  8
LAYER_1
 40
0.1764
 41
0.1764
 62
3
 66
1
 10
0
 20
0
 30
0
  0
VERTEX
  8
LAYER_1
 10
57.5386
 20
-103.6387
  0
VERTEX
  8
LAYER_1
 10
61.5055
 20
-110.5062
  0
SEQEND
  0
POLYLINE
  8
LAYER_1
 40
0.1764
 41
0.1764
 62
3
 66
1
 10
0
 20
0
 30
0
  0
VERTEX
  8
LAYER_1
 10
56.5391
 20
-105.3698
  0
VERTEX
  8
LAYER_1
 10
60.3715
 20
-112.013
  0
SEQEND
  0
POLYLINE
  8
LAYER_1
 40
0.1764
 41
0.1764
 62
3
 66
1
 10
0
 20
0
 30
0
  0
VERTEX
  8
LAYER_1
 10
55.5396
 20
-107.101
  0
VERTEX
  8
LAYER_1
 10
59.3345
 20
-113.6736
  0
SEQEND
  0
POLYLINE
  8
LAYER_1
 40
0.1764
 41
0.1764
 62
3
 66
1
 10
0
 20
0
 30
0
  0
VERTEX
  8
LAYER_1
 10
58.5415
 20
-115.7586
  0
VERTEX
  8
LAYER_1
 10
62.5394
 20
-108.8341
  0
SEQEND
  0
POLYLINE
  8
LAYER_1
 40
0.1764
 41
0.1764
 62
3
 66
1
 10
0
 20
0
 30
0
  0
VERTEX
  8
LAYER_1
 10
62.2881
 20
-108.4054
  0
VERTEX
  8
LAYER_1
 10
62.5394
 20
-108.8341
  0
SEQEND
  0
POLYLINE
  8
LAYER_1
 40
0.1764
 41
0.1764
 62
3
 66
1
 10
0
 20
0
 30
0
  0
VERTEX
  8
LAYER_1
 10
60.3715
 20
-112.013
  0
VERTEX
  8
LAYER_1
 10
60.5404
 20
-112.2963
  0
SEQEND
  0
POLYLINE
  8
LAYER_1
 40
0.1764
 41
0.1764
 62
3
 66
1
 10
0
 20
0
 30
0
  0
VERTEX
  8
LAYER_1
 10
59.3345
 20
-113.6735
  0
VERTEX
  8
LAYER_1
 10
59.541
 20
-114.0275
  0
SEQEND
  0
POLYLINE
  8
LAYER_1
 40
0.1764
 41
0.1764
 62
3
 66
1
 10
0
 20
0
 30
0
  0
VERTEX
  8
LAYER_1
 10
50.5381
 20
-115.7639
  0
VERTEX
  8
LAYER_1
 10
58.5415
 20
-115.7586
  0
SEQEND
  0
POLYLINE
  8
LAYER_1
 40
0.1764
 41
0.1764
 62
3
 66
1
 10
0
 20
0
 30
0
  0
VERTEX
  8
LAYER_1
 10
54.5402
 20
-108.8321
  0
VERTEX
  8
LAYER_1
 10
58.5415
 20
-115.7586
  0
SEQEND
  0
POLYLINE
  8
LAYER_1
 40
0.1764
 41
0.1764
 62
3
 66
1
 10
0
 20
0
 30
0
  0
VERTEX
  8
LAYER_1
 10
53.5407
 20
-110.5632
  0
VERTEX
  8
LAYER_1
 10
55.5369
 20
-110.5616
  0
SEQEND
  0
POLYLINE
  8
LAYER_1
 40
0.1764
 41
0.1764
 62
3
 66
1
 10
0
 20
0
 30
0
  0
VERTEX
  8
LAYER_1
 10
52.5413
 20
-112.2943
  0
VERTEX
  8
LAYER_1
 10
56.5409
 20
-112.2953
  0
SEQEND
  0
POLYLINE
  8
LAYER_1
 40
0.1764
 41
0.1764
 62
3
 66
1
 10
0
 20
0
 30
0
  0
VERTEX
  8
LAYER_1
 10
51.5418
 20
-114.0255
  0
VERTEX
  8
LAYER_1
 10
57.5375
 20
-114.0248
  0
SEQEND
  0
ENDBLK
  0
BLOCK
  8
LAYER_1
  2
AIGNBL0102002A
 70
64
 10
0
 20
0
 30
0
  3
AIGNBL0102002A
  0
POLYLINE
  8
LAYER_1
 40
0.1764
 41
0.1764
 62
3
 66
1
 10
0
 20
0
 30
0
  0
VERTEX
  8
LAYER_1
 10
36.9857
 20
-137.6077
  0
VERTEX
  8
LAYER_1
 10
20.9858
 20
-137.6077
  0
VERTEX
  8
LAYER_1
 10
24.738
 20
-131.1111
  0
SEQEND
  0
POLYLINE
  8
LAYER_1
 40
0.1764
 41
0.1764
 62
3
 66
1
 10
0
 20
0
 30
0
  0
VERTEX
  8
LAYER_1
 10
22.9847
 20
-137.6077
  0
VERTEX
  8
LAYER_1
 10
20.9858
 20
-137.6077
  0
SEQEND
  0
POLYLINE
  8
LAYER_1
 40
0.1764
 41
0.1764
 62
3
 66
1
 10
0
 20
0
 30
0
  0
VERTEX
  8
LAYER_1
 10
24.9836
 20
-137.6077
  0
VERTEX
  8
LAYER_1
 10
22.9847
 20
-137.6077
  0
SEQEND
  0
POLYLINE
  8
LAYER_1
 40
0.1764
 41
0.1764
 62
3
 66
1
 10
0
 20
0
 30
0
  0
VERTEX
  8
LAYER_1
 10
26.9826
 20
-137.6077
  0
VERTEX
  8
LAYER_1
 10
24.9836
 20
-137.6077
  0
SEQEND
  0
POLYLINE
  8
LAYER_1
 40
0.1764
 41
0.1764
 62
3
 66
1
 10
0
 20
0
 30
0
  0
VERTEX
  8
LAYER_1
 10
28.9815
 20
-137.6077
  0
VERTEX
  8
LAYER_1
 10
26.9826
 20
-137.6077
  0
SEQEND
  0
POLYLINE
  8
LAYER_1
 40
0.1764
 41
0.1764
 62
3
 66
1
 10
0
 20
0
 30
0
  0
VERTEX
  8
LAYER_1
 10
30.9804
 20
-137.6077
  0
VERTEX
  8
LAYER_1
 10
28.9815
 20
-137.6077
  0
SEQEND
  0
POLYLINE
  8
LAYER_1
 40
0.1764
 41
0.1764
 62
3
 66
1
 10
0
 20
0
 30
0
  0
VERTEX
  8
LAYER_1
 10
32.9793
 20
-137.6077
  0
VERTEX
  8
LAYER_1
 10
30.9804
 20
-137.6077
  0
SEQEND
  0
POLYLINE
  8
LAYER_1
 40
0.1764
 41
0.1764
 62
3
 66
1
 10
0
 20
0
 30
0
  0
VERTEX
  8
LAYER_1
 10
34.9783
 20
-137.6077
  0
VERTEX
  8
LAYER_1
 10
32.9793
 20
-137.6077
  0
SEQEND
  0
POLYLINE
  8
LAYER_1
 40
0.1764
 41
0.1764
 62
3
 66
1
 10
0
 20
0
 30
0
  0
VERTEX
  8
LAYER_1
 10
22.9847
 20
-137.6077
  0
VERTEX
  8
LAYER_1
 10
26.9487
 20
-130.7384
  0
SEQEND
  0
POLYLINE
  8
LAYER_1
 40
0.1764
 41
0.1764
 62
3
 66
1
 10
0
 20
0
 30
0
  0
VERTEX
  8
LAYER_1
 10
24.9836
 20
-137.6077
  0
VERTEX
  8
LAYER_1
 10
28.8205
 20
-130.9671
  0
SEQEND
  0
POLYLINE
  8
LAYER_1
 40
0.1764
 41
0.1764
 62
3
 66
1
 10
0
 20
0
 30
0
  0
VERTEX
  8
LAYER_1
 10
26.9825
 20
-137.6077
  0
VERTEX
  8
LAYER_1
 10
30.7771
 20
-131.0349
  0
SEQEND
  0
POLYLINE
  8
LAYER_1
 40
0.1764
 41
0.1764
 62
3
 66
1
 10
0
 20
0
 30
0
  0
VERTEX
  8
LAYER_1
 10
32.9793
 20
-130.6792
  0
VERTEX
  8
LAYER_1
 10
24.9836
 20
-130.6792
  0
SEQEND
  0
POLYLINE
  8
LAYER_1
 40
0.1764
 41
0.1764
 62
3
 66
1
 10
0
 20
0
 30
0
  0
VERTEX
  8
LAYER_1
 10
24.738
 20
-131.1111
  0
VERTEX
  8
LAYER_1
 10
24.9836
 20
-130.6792
  0
SEQEND
  0
POLYLINE
  8
LAYER_1
 40
0.1764
 41
0.1764
 62
3
 66
1
 10
0
 20
0
 30
0
  0
VERTEX
  8
LAYER_1
 10
28.8205
 20
-130.9671
  0
VERTEX
  8
LAYER_1
 10
28.9815
 20
-130.6792
  0
SEQEND
  0
POLYLINE
  8
LAYER_1
 40
0.1764
 41
0.1764
 62
3
 66
1
 10
0
 20
0
 30
0
  0
VERTEX
  8
LAYER_1
 10
30.7771
 20
-131.0349
  0
VERTEX
  8
LAYER_1
 10
30.9804
 20
-130.6792
  0
SEQEND
  0
POLYLINE
  8
LAYER_1
 40
0.1764
 41
0.1764
 62
3
 66
1
 10
0
 20
0
 30
0
  0
VERTEX
  8
LAYER_1
 10
36.9857
 20
-137.6077
  0
VERTEX
  8
LAYER_1
 10
32.9793
 20
-130.6792
  0
SEQEND
  0
POLYLINE
  8
LAYER_1
 40
0.1764
 41
0.1764
 62
3
 66
1
 10
0
 20
0
 30
0
  0
VERTEX
  8
LAYER_1
 10
28.9815
 20
-137.6077
  0
VERTEX
  8
LAYER_1
 10
32.9793
 20
-130.6792
  0
SEQEND
  0
POLYLINE
  8
LAYER_1
 40
0.1764
 41
0.1764
 62
3
 66
1
 10
0
 20
0
 30
0
  0
VERTEX
  8
LAYER_1
 10
30.9804
 20
-137.6077
  0
VERTEX
  8
LAYER_1
 10
29.9809
 20
-135.8798
  0
SEQEND
  0
POLYLINE
  8
LAYER_1
 40
0.1764
 41
0.1764
 62
3
 66
1
 10
0
 20
0
 30
0
  0
VERTEX
  8
LAYER_1
 10
32.9793
 20
-137.6077
  0
VERTEX
  8
LAYER_1
 10
30.9804
 20
-134.1434
  0
SEQEND
  0
POLYLINE
  8
LAYER_1
 40
0.1764
 41
0.1764
 62
3
 66
1
 10
0
 20
0
 30
0
  0
VERTEX
  8
LAYER_1
 10
34.9782
 20
-137.6077
  0
VERTEX
  8
LAYER_1
 10
31.9798
 20
-132.4155
  0
SEQEND
  0
ENDBLK
  0
BLOCK
  8
LAYER_1
  2
AIGNBL0102002D
 70
64
 10
0
 20
0
 30
0
  3
AIGNBL0102002D
  0
POLYLINE
  8
LAYER_1
 40
0.1764
 41
0.1764
 62
3
 66
1
 10
0
 20
0
 30
0
  0
VERTEX
  8
LAYER_1
 10
37.4099
 20
-138.2887
  0
VERTEX
  8
LAYER_1
 10
45.4099
 20
-152.145
  0
VERTEX
  8
LAYER_1
 10
37.9076
 20
-152.1438
  0
SEQEND
  0
POLYLINE
  8
LAYER_1
 40
0.1764
 41
0.1764
 62
3
 66
1
 10
0
 20
0
 30
0
  0
VERTEX
  8
LAYER_1
 10
44.4104
 20
-150.4139
  0
VERTEX
  8
LAYER_1
 10
45.4099
 20
-152.145
  0
SEQEND
  0
POLYLINE
  8
LAYER_1
 40
0.1764
 41
0.1764
 62
3
 66
1
 10
0
 20
0
 30
0
  0
VERTEX
  8
LAYER_1
 10
43.411
 20
-148.6828
  0
VERTEX
  8
LAYER_1
 10
44.4104
 20
-150.4139
  0
SEQEND
  0
POLYLINE
  8
LAYER_1
 40
0.1764
 41
0.1764
 62
3
 66
1
 10
0
 20
0
 30
0
  0
VERTEX
  8
LAYER_1
 10
42.4115
 20
-146.9517
  0
VERTEX
  8
LAYER_1
 10
43.411
 20
-148.6828
  0
SEQEND
  0
POLYLINE
  8
LAYER_1
 40
0.1764
 41
0.1764
 62
3
 66
1
 10
0
 20
0
 30
0
  0
VERTEX
  8
LAYER_1
 10
41.412
 20
-145.2206
  0
VERTEX
  8
LAYER_1
 10
42.4115
 20
-146.9517
  0
SEQEND
  0
POLYLINE
  8
LAYER_1
 40
0.1764
 41
0.1764
 62
3
 66
1
 10
0
 20
0
 30
0
  0
VERTEX
  8
LAYER_1
 10
40.4126
 20
-143.4894
  0
VERTEX
  8
LAYER_1
 10
41.412
 20
-145.2206
  0
SEQEND
  0
POLYLINE
  8
LAYER_1
 40
0.1764
 41
0.1764
 62
3
 66
1
 10
0
 20
0
 30
0
  0
VERTEX
  8
LAYER_1
 10
39.4131
 20
-141.7583
  0
VERTEX
  8
LAYER_1
 10
40.4126
 20
-143.4894
  0
SEQEND
  0
POLYLINE
  8
LAYER_1
 40
0.1764
 41
0.1764
 62
3
 66
1
 10
0
 20
0
 30
0
  0
VERTEX
  8
LAYER_1
 10
38.4136
 20
-140.0272
  0
VERTEX
  8
LAYER_1
 10
39.4131
 20
-141.7583
  0
SEQEND
  0
POLYLINE
  8
LAYER_1
 40
0.1764
 41
0.1764
 62
3
 66
1
 10
0
 20
0
 30
0
  0
VERTEX
  8
LAYER_1
 10
44.4104
 20
-150.4139
  0
VERTEX
  8
LAYER_1
 10
36.4795
 20
-150.4156
  0
SEQEND
  0
POLYLINE
  8
LAYER_1
 40
0.1764
 41
0.1764
 62
3
 66
1
 10
0
 20
0
 30
0
  0
VERTEX
  8
LAYER_1
 10
43.411
 20
-148.6828
  0
VERTEX
  8
LAYER_1
 10
35.7416
 20
-148.6802
  0
SEQEND
  0
POLYLINE
  8
LAYER_1
 40
0.1764
 41
0.1764
 62
3
 66
1
 10
0
 20
0
 30
0
  0
VERTEX
  8
LAYER_1
 10
42.4115
 20
-146.9517
  0
VERTEX
  8
LAYER_1
 10
34.822
 20
-146.9519
  0
SEQEND
  0
POLYLINE
  8
LAYER_1
 40
0.1764
 41
0.1764
 62
3
 66
1
 10
0
 20
0
 30
0
  0
VERTEX
  8
LAYER_1
 10
33.4128
 20
-145.2226
  0
VERTEX
  8
LAYER_1
 10
37.4107
 20
-152.1471
  0
SEQEND
  0
POLYLINE
  8
LAYER_1
 40
0.1764
 41
0.1764
 62
3
 66
1
 10
0
 20
0
 30
0
  0
VERTEX
  8
LAYER_1
 10
37.9076
 20
-152.1438
  0
VERTEX
  8
LAYER_1
 10
37.4107
 20
-152.1471
  0
SEQEND
  0
POLYLINE
  8
LAYER_1
 40
0.1764
 41
0.1764
 62
3
 66
1
 10
0
 20
0
 30
0
  0
VERTEX
  8
LAYER_1
 10
35.7416
 20
-148.6802
  0
VERTEX
  8
LAYER_1
 10
35.4118
 20
-148.6848
  0
SEQEND
  0
POLYLINE
  8
LAYER_1
 40
0.1764
 41
0.1764
 62
3
 66
1
 10
0
 20
0
 30
0
  0
VERTEX
  8
LAYER_1
 10
34.822
 20
-146.9519
  0
VERTEX
  8
LAYER_1
 10
34.4123
 20
-146.9537
  0
SEQEND
  0
POLYLINE
  8
LAYER_1
 40
0.1764
 41
0.1764
 62
3
 66
1
 10
0
 20
0
 30
0
  0
VERTEX
  8
LAYER_1
 10
37.4099
 20
-138.2887
  0
VERTEX
  8
LAYER_1
 10
33.4128
 20
-145.2226
  0
SEQEND
  0
POLYLINE
  8
LAYER_1
 40
0.1764
 41
0.1764
 62
3
 66
1
 10
0
 20
0
 30
0
  0
VERTEX
  8
LAYER_1
 10
41.412
 20
-145.2206
  0
VERTEX
  8
LAYER_1
 10
33.4128
 20
-145.2226
  0
SEQEND
  0
POLYLINE
  8
LAYER_1
 40
0.1764
 41
0.1764
 62
3
 66
1
 10
0
 20
0
 30
0
  0
VERTEX
  8
LAYER_1
 10
40.4126
 20
-143.4895
  0
VERTEX
  8
LAYER_1
 10
39.4159
 20
-145.219
  0
SEQEND
  0
POLYLINE
  8
LAYER_1
 40
0.1764
 41
0.1764
 62
3
 66
1
 10
0
 20
0
 30
0
  0
VERTEX
  8
LAYER_1
 10
39.4131
 20
-141.7583
  0
VERTEX
  8
LAYER_1
 10
37.4124
 20
-145.2216
  0
SEQEND
  0
POLYLINE
  8
LAYER_1
 40
0.1764
 41
0.1764
 62
3
 66
1
 10
0
 20
0
 30
0
  0
VERTEX
  8
LAYER_1
 10
38.4136
 20
-140.0272
  0
VERTEX
  8
LAYER_1
 10
35.4163
 20
-145.22
  0
SEQEND
  0
ENDBLK
  0
BLOCK
  8
LAYER_1
  2
AIGNBL01020030
 70
64
 10
0
 20
0
 30
0
  3
AIGNBL01020030
  0
POLYLINE
  8
LAYER_1
 40
0.1764
 41
0.1764
 62
3
 66
1
 10
0
 20
0
 30
0
  0
VERTEX
  8
LAYER_1
 10
37.7992
 20
-137.6685
  0
VERTEX
  8
LAYER_1
 10
45.7992
 20
-123.8122
  0
VERTEX
  8
LAYER_1
 10
49.5493
 20
-130.3099
  0
SEQEND
  0
POLYLINE
  8
LAYER_1
 40
0.1764
 41
0.1764
 62
3
 66
1
 10
0
 20
0
 30
0
  0
VERTEX
  8
LAYER_1
 10
44.7997
 20
-125.5433
  0
VERTEX
  8
LAYER_1
 10
45.7992
 20
-123.8122
  0
SEQEND
  0
POLYLINE
  8
LAYER_1
 40
0.1764
 41
0.1764
 62
3
 66
1
 10
0
 20
0
 30
0
  0
VERTEX
  8
LAYER_1
 10
43.8003
 20
-127.2744
  0
VERTEX
  8
LAYER_1
 10
44.7997
 20
-125.5433
  0
SEQEND
  0
POLYLINE
  8
LAYER_1
 40
0.1764
 41
0.1764
 62
3
 66
1
 10
0
 20
0
 30
0
  0
VERTEX
  8
LAYER_1
 10
42.8008
 20
-129.0055
  0
VERTEX
  8
LAYER_1
 10
43.8003
 20
-127.2744
  0
SEQEND
  0
POLYLINE
  8
LAYER_1
 40
0.1764
 41
0.1764
 62
3
 66
1
 10
0
 20
0
 30
0
  0
VERTEX
  8
LAYER_1
 10
41.8014
 20
-130.7367
  0
VERTEX
  8
LAYER_1
 10
42.8008
 20
-129.0055
  0
SEQEND
  0
POLYLINE
  8
LAYER_1
 40
0.1764
 41
0.1764
 62
3
 66
1
 10
0
 20
0
 30
0
  0
VERTEX
  8
LAYER_1
 10
40.8019
 20
-132.4678
  0
VERTEX
  8
LAYER_1
 10
41.8014
 20
-130.7367
  0
SEQEND
  0
POLYLINE
  8
LAYER_1
 40
0.1764
 41
0.1764
 62
3
 66
1
 10
0
 20
0
 30
0
  0
VERTEX
  8
LAYER_1
 10
39.8024
 20
-134.1989
  0
VERTEX
  8
LAYER_1
 10
40.8019
 20
-132.4678
  0
SEQEND
  0
POLYLINE
  8
LAYER_1
 40
0.1764
 41
0.1764
 62
3
 66
1
 10
0
 20
0
 30
0
  0
VERTEX
  8
LAYER_1
 10
38.803
 20
-135.93
  0
VERTEX
  8
LAYER_1
 10
39.8024
 20
-134.1989
  0
SEQEND
  0
POLYLINE
  8
LAYER_1
 40
0.1764
 41
0.1764
 62
3
 66
1
 10
0
 20
0
 30
0
  0
VERTEX
  8
LAYER_1
 10
44.7998
 20
-125.5433
  0
VERTEX
  8
LAYER_1
 10
48.7667
 20
-132.4108
  0
SEQEND
  0
POLYLINE
  8
LAYER_1
 40
0.1764
 41
0.1764
 62
3
 66
1
 10
0
 20
0
 30
0
  0
VERTEX
  8
LAYER_1
 10
43.8003
 20
-127.2744
  0
VERTEX
  8
LAYER_1
 10
47.6327
 20
-133.9175
  0
SEQEND
  0
POLYLINE
  8
LAYER_1
 40
0.1764
 41
0.1764
 62
3
 66
1
 10
0
 20
0
 30
0
  0
VERTEX
  8
LAYER_1
 10
42.8008
 20
-129.0055
  0
VERTEX
  8
LAYER_1
 10
46.5957
 20
-135.5781
  0
SEQEND
  0
POLYLINE
  8
LAYER_1
 40
0.1764
 41
0.1764
 62
3
 66
1
 10
0
 20
0
 30
0
  0
VERTEX
  8
LAYER_1
 10
45.8027
 20
-137.6631
  0
VERTEX
  8
LAYER_1
 10
49.8006
 20
-130.7386
  0
SEQEND
  0
POLYLINE
  8
LAYER_1
 40
0.1764
 41
0.1764
 62
3
 66
1
 10
0
 20
0
 30
0
  0
VERTEX
  8
LAYER_1
 10
49.5493
 20
-130.3099
  0
VERTEX
  8
LAYER_1
 10
49.8006
 20
-130.7386
  0
SEQEND
  0
POLYLINE
  8
LAYER_1
 40
0.1764
 41
0.1764
 62
3
 66
1
 10
0
 20
0
 30
0
  0
VERTEX
  8
LAYER_1
 10
47.6327
 20
-133.9175
  0
VERTEX
  8
LAYER_1
 10
47.8016
 20
-134.2009
  0
SEQEND
  0
POLYLINE
  8
LAYER_1
 40
0.1764
 41
0.1764
 62
3
 66
1
 10
0
 20
0
 30
0
  0
VERTEX
  8
LAYER_1
 10
46.5957
 20
-135.5781
  0
VERTEX
  8
LAYER_1
 10
46.8022
 20
-135.932
  0
SEQEND
  0
POLYLINE
  8
LAYER_1
 40
0.1764
 41
0.1764
 62
3
 66
1
 10
0
 20
0
 30
0
  0
VERTEX
  8
LAYER_1
 10
37.7993
 20
-137.6685
  0
VERTEX
  8
LAYER_1
 10
45.8027
 20
-137.6631
  0
SEQEND
  0
POLYLINE
  8
LAYER_1
 40
0.1764
 41
0.1764
 62
3
 66
1
 10
0
 20
0
 30
0
  0
VERTEX
  8
LAYER_1
 10
41.8014
 20
-130.7366
  0
VERTEX
  8
LAYER_1
 10
45.8027
 20
-137.6631
  0
SEQEND
  0
POLYLINE
  8
LAYER_1
 40
0.1764
 41
0.1764
 62
3
 66
1
 10
0
 20
0
 30
0
  0
VERTEX
  8
LAYER_1
 10
40.8019
 20
-132.4677
  0
VERTEX
  8
LAYER_1
 10
42.798
 20
-132.4661
  0
SEQEND
  0
POLYLINE
  8
LAYER_1
 40
0.1764
 41
0.1764
 62
3
 66
1
 10
0
 20
0
 30
0
  0
VERTEX
  8
LAYER_1
 10
39.8024
 20
-134.1989
  0
VERTEX
  8
LAYER_1
 10
43.802
 20
-134.1999
  0
SEQEND
  0
POLYLINE
  8
LAYER_1
 40
0.1764
 41
0.1764
 62
3
 66
1
 10
0
 20
0
 30
0
  0
VERTEX
  8
LAYER_1
 10
38.803
 20
-135.93
  0
VERTEX
  8
LAYER_1
 10
44.7987
 20
-135.9294
  0
SEQEND
  0
ENDBLK
  0
BLOCK
  8
LAYER_1
  2
AIGNBL01020033
 70
64
 10
0
 20
0
 30
0
  3
AIGNBL01020033
  0
POLYLINE
  8
LAYER_1
 40
0.1764
 41
0.1764
 62
3
 66
1
 10
0
 20
0
 30
0
  0
VERTEX
  8
LAYER_1
 10
11.0419
 20
-137.3087
  0
VERTEX
  8
LAYER_1
 10
-4.9581
 20
-137.3087
  0
VERTEX
  8
LAYER_1
 10
-1.2058
 20
-130.8121
  0
SEQEND
  0
POLYLINE
  8
LAYER_1
 40
0.1764
 41
0.1764
 62
3
 66
1
 10
0
 20
0
 30
0
  0
VERTEX
  8
LAYER_1
 10
-2.9591
 20
-137.3087
  0
VERTEX
  8
LAYER_1
 10
-4.9581
 20
-137.3087
  0
SEQEND
  0
POLYLINE
  8
LAYER_1
 40
0.1764
 41
0.1764
 62
3
 66
1
 10
0
 20
0
 30
0
  0
VERTEX
  8
LAYER_1
 10
-0.9602
 20
-137.3087
  0
VERTEX
  8
LAYER_1
 10
-2.9591
 20
-137.3087
  0
SEQEND
  0
POLYLINE
  8
LAYER_1
 40
0.1764
 41
0.1764
 62
3
 66
1
 10
0
 20
0
 30
0
  0
VERTEX
  8
LAYER_1
 10
1.0387
 20
-137.3087
  0
VERTEX
  8
LAYER_1
 10
-0.9602
 20
-137.3087
  0
SEQEND
  0
POLYLINE
  8
LAYER_1
 40
0.1764
 41
0.1764
 62
3
 66
1
 10
0
 20
0
 30
0
  0
VERTEX
  8
LAYER_1
 10
3.0377
 20
-137.3087
  0
VERTEX
  8
LAYER_1
 10
1.0387
 20
-137.3087
  0
SEQEND
  0
POLYLINE
  8
LAYER_1
 40
0.1764
 41
0.1764
 62
3
 66
1
 10
0
 20
0
 30
0
  0
VERTEX
  8
LAYER_1
 10
5.0366
 20
-137.3087
  0
VERTEX
  8
LAYER_1
 10
3.0377
 20
-137.3087
  0
SEQEND
  0
POLYLINE
  8
LAYER_1
 40
0.1764
 41
0.1764
 62
3
 66
1
 10
0
 20
0
 30
0
  0
VERTEX
  8
LAYER_1
 10
7.0355
 20
-137.3087
  0
VERTEX
  8
LAYER_1
 10
5.0366
 20
-137.3087
  0
SEQEND
  0
POLYLINE
  8
LAYER_1
 40
0.1764
 41
0.1764
 62
3
 66
1
 10
0
 20
0
 30
0
  0
VERTEX
  8
LAYER_1
 10
9.0344
 20
-137.3087
  0
VERTEX
  8
LAYER_1
 10
7.0355
 20
-137.3087
  0
SEQEND
  0
POLYLINE
  8
LAYER_1
 40
0.1764
 41
0.1764
 62
3
 66
1
 10
0
 20
0
 30
0
  0
VERTEX
  8
LAYER_1
 10
-2.9592
 20
-137.3087
  0
VERTEX
  8
LAYER_1
 10
1.0048
 20
-130.4395
  0
SEQEND
  0
POLYLINE
  8
LAYER_1
 40
0.1764
 41
0.1764
 62
3
 66
1
 10
0
 20
0
 30
0
  0
VERTEX
  8
LAYER_1
 10
-0.9602
 20
-137.3087
  0
VERTEX
  8
LAYER_1
 10
2.8767
 20
-130.6681
  0
SEQEND
  0
POLYLINE
  8
LAYER_1
 40
0.1764
 41
0.1764
 62
3
 66
1
 10
0
 20
0
 30
0
  0
VERTEX
  8
LAYER_1
 10
1.0387
 20
-137.3087
  0
VERTEX
  8
LAYER_1
 10
4.8333
 20
-130.7359
  0
SEQEND
  0
POLYLINE
  8
LAYER_1
 40
0.1764
 41
0.1764
 62
3
 66
1
 10
0
 20
0
 30
0
  0
VERTEX
  8
LAYER_1
 10
7.0355
 20
-130.3802
  0
VERTEX
  8
LAYER_1
 10
-0.9602
 20
-130.3802
  0
SEQEND
  0
POLYLINE
  8
LAYER_1
 40
0.1764
 41
0.1764
 62
3
 66
1
 10
0
 20
0
 30
0
  0
VERTEX
  8
LAYER_1
 10
-1.2059
 20
-130.8121
  0
VERTEX
  8
LAYER_1
 10
-0.9602
 20
-130.3802
  0
SEQEND
  0
POLYLINE
  8
LAYER_1
 40
0.1764
 41
0.1764
 62
3
 66
1
 10
0
 20
0
 30
0
  0
VERTEX
  8
LAYER_1
 10
2.8767
 20
-130.6681
  0
VERTEX
  8
LAYER_1
 10
3.0376
 20
-130.3802
  0
SEQEND
  0
POLYLINE
  8
LAYER_1
 40
0.1764
 41
0.1764
 62
3
 66
1
 10
0
 20
0
 30
0
  0
VERTEX
  8
LAYER_1
 10
4.8333
 20
-130.7359
  0
VERTEX
  8
LAYER_1
 10
5.0366
 20
-130.3802
  0
SEQEND
  0
POLYLINE
  8
LAYER_1
 40
0.1764
 41
0.1764
 62
3
 66
1
 10
0
 20
0
 30
0
  0
VERTEX
  8
LAYER_1
 10
11.0418
 20
-137.3087
  0
VERTEX
  8
LAYER_1
 10
7.0355
 20
-130.3802
  0
SEQEND
  0
POLYLINE
  8
LAYER_1
 40
0.1764
 41
0.1764
 62
3
 66
1
 10
0
 20
0
 30
0
  0
VERTEX
  8
LAYER_1
 10
3.0376
 20
-137.3087
  0
VERTEX
  8
LAYER_1
 10
7.0355
 20
-130.3802
  0
SEQEND
  0
POLYLINE
  8
LAYER_1
 40
0.1764
 41
0.1764
 62
3
 66
1
 10
0
 20
0
 30
0
  0
VERTEX
  8
LAYER_1
 10
5.0365
 20
-137.3087
  0
VERTEX
  8
LAYER_1
 10
4.0371
 20
-135.5808
  0
SEQEND
  0
POLYLINE
  8
LAYER_1
 40
0.1764
 41
0.1764
 62
3
 66
1
 10
0
 20
0
 30
0
  0
VERTEX
  8
LAYER_1
 10
7.0355
 20
-137.3087
  0
VERTEX
  8
LAYER_1
 10
5.0365
 20
-133.8444
  0
SEQEND
  0
POLYLINE
  8
LAYER_1
 40
0.1764
 41
0.1764
 62
3
 66
1
 10
0
 20
0
 30
0
  0
VERTEX
  8
LAYER_1
 10
9.0344
 20
-137.3087
  0
VERTEX
  8
LAYER_1
 10
6.036
 20
-132.1165
  0
SEQEND
  0
ENDBLK
  0
BLOCK
  8
LAYER_1
  2
AIGNBL01020036
 70
64
 10
0
 20
0
 30
0
  3
AIGNBL01020036
  0
POLYLINE
  8
LAYER_1
 40
0.1764
 41
0.1764
 62
3
 66
1
 10
0
 20
0
 30
0
  0
VERTEX
  8
LAYER_1
 10
11.4661
 20
-137.9897
  0
VERTEX
  8
LAYER_1
 10
19.466
 20
-151.8461
  0
VERTEX
  8
LAYER_1
 10
11.9638
 20
-151.8448
  0
SEQEND
  0
POLYLINE
  8
LAYER_1
 40
0.1764
 41
0.1764
 62
3
 66
1
 10
0
 20
0
 30
0
  0
VERTEX
  8
LAYER_1
 10
18.4666
 20
-150.1149
  0
VERTEX
  8
LAYER_1
 10
19.466
 20
-151.8461
  0
SEQEND
  0
POLYLINE
  8
LAYER_1
 40
0.1764
 41
0.1764
 62
3
 66
1
 10
0
 20
0
 30
0
  0
VERTEX
  8
LAYER_1
 10
17.4671
 20
-148.3838
  0
VERTEX
  8
LAYER_1
 10
18.4666
 20
-150.1149
  0
SEQEND
  0
POLYLINE
  8
LAYER_1
 40
0.1764
 41
0.1764
 62
3
 66
1
 10
0
 20
0
 30
0
  0
VERTEX
  8
LAYER_1
 10
16.4677
 20
-146.6527
  0
VERTEX
  8
LAYER_1
 10
17.4671
 20
-148.3838
  0
SEQEND
  0
POLYLINE
  8
LAYER_1
 40
0.1764
 41
0.1764
 62
3
 66
1
 10
0
 20
0
 30
0
  0
VERTEX
  8
LAYER_1
 10
15.4682
 20
-144.9216
  0
VERTEX
  8
LAYER_1
 10
16.4677
 20
-146.6527
  0
SEQEND
  0
POLYLINE
  8
LAYER_1
 40
0.1764
 41
0.1764
 62
3
 66
1
 10
0
 20
0
 30
0
  0
VERTEX
  8
LAYER_1
 10
14.4687
 20
-143.1904
  0
VERTEX
  8
LAYER_1
 10
15.4682
 20
-144.9216
  0
SEQEND
  0
POLYLINE
  8
LAYER_1
 40
0.1764
 41
0.1764
 62
3
 66
1
 10
0
 20
0
 30
0
  0
VERTEX
  8
LAYER_1
 10
13.4693
 20
-141.4593
  0
VERTEX
  8
LAYER_1
 10
14.4687
 20
-143.1904
  0
SEQEND
  0
POLYLINE
  8
LAYER_1
 40
0.1764
 41
0.1764
 62
3
 66
1
 10
0
 20
0
 30
0
  0
VERTEX
  8
LAYER_1
 10
12.4698
 20
-139.7282
  0
VERTEX
  8
LAYER_1
 10
13.4693
 20
-141.4593
  0
SEQEND
  0
POLYLINE
  8
LAYER_1
 40
0.1764
 41
0.1764
 62
3
 66
1
 10
0
 20
0
 30
0
  0
VERTEX
  8
LAYER_1
 10
18.4666
 20
-150.115
  0
VERTEX
  8
LAYER_1
 10
10.5357
 20
-150.1166
  0
SEQEND
  0
POLYLINE
  8
LAYER_1
 40
0.1764
 41
0.1764
 62
3
 66
1
 10
0
 20
0
 30
0
  0
VERTEX
  8
LAYER_1
 10
17.4671
 20
-148.3838
  0
VERTEX
  8
LAYER_1
 10
9.7978
 20
-148.3812
  0
SEQEND
  0
POLYLINE
  8
LAYER_1
 40
0.1764
 41
0.1764
 62
3
 66
1
 10
0
 20
0
 30
0
  0
VERTEX
  8
LAYER_1
 10
16.4677
 20
-146.6527
  0
VERTEX
  8
LAYER_1
 10
8.8782
 20
-146.6529
  0
SEQEND
  0
POLYLINE
  8
LAYER_1
 40
0.1764
 41
0.1764
 62
3
 66
1
 10
0
 20
0
 30
0
  0
VERTEX
  8
LAYER_1
 10
7.469
 20
-144.9236
  0
VERTEX
  8
LAYER_1
 10
11.4669
 20
-151.8481
  0
SEQEND
  0
POLYLINE
  8
LAYER_1
 40
0.1764
 41
0.1764
 62
3
 66
1
 10
0
 20
0
 30
0
  0
VERTEX
  8
LAYER_1
 10
11.9638
 20
-151.8448
  0
VERTEX
  8
LAYER_1
 10
11.4669
 20
-151.8481
  0
SEQEND
  0
POLYLINE
  8
LAYER_1
 40
0.1764
 41
0.1764
 62
3
 66
1
 10
0
 20
0
 30
0
  0
VERTEX
  8
LAYER_1
 10
9.7978
 20
-148.3812
  0
VERTEX
  8
LAYER_1
 10
9.4679
 20
-148.3858
  0
SEQEND
  0
POLYLINE
  8
LAYER_1
 40
0.1764
 41
0.1764
 62
3
 66
1
 10
0
 20
0
 30
0
  0
VERTEX
  8
LAYER_1
 10
8.8782
 20
-146.6529
  0
VERTEX
  8
LAYER_1
 10
8.4685
 20
-146.6547
  0
SEQEND
  0
POLYLINE
  8
LAYER_1
 40
0.1764
 41
0.1764
 62
3
 66
1
 10
0
 20
0
 30
0
  0
VERTEX
  8
LAYER_1
 10
11.4661
 20
-137.9897
  0
VERTEX
  8
LAYER_1
 10
7.469
 20
-144.9236
  0
SEQEND
  0
POLYLINE
  8
LAYER_1
 40
0.1764
 41
0.1764
 62
3
 66
1
 10
0
 20
0
 30
0
  0
VERTEX
  8
LAYER_1
 10
15.4682
 20
-144.9216
  0
VERTEX
  8
LAYER_1
 10
7.469
 20
-144.9236
  0
SEQEND
  0
POLYLINE
  8
LAYER_1
 40
0.1764
 41
0.1764
 62
3
 66
1
 10
0
 20
0
 30
0
  0
VERTEX
  8
LAYER_1
 10
14.4687
 20
-143.1905
  0
VERTEX
  8
LAYER_1
 10
13.4721
 20
-144.92
  0
SEQEND
  0
POLYLINE
  8
LAYER_1
 40
0.1764
 41
0.1764
 62
3
 66
1
 10
0
 20
0
 30
0
  0
VERTEX
  8
LAYER_1
 10
13.4693
 20
-141.4593
  0
VERTEX
  8
LAYER_1
 10
11.4686
 20
-144.9226
  0
SEQEND
  0
POLYLINE
  8
LAYER_1
 40
0.1764
 41
0.1764
 62
3
 66
1
 10
0
 20
0
 30
0
  0
VERTEX
  8
LAYER_1
 10
12.4698
 20
-139.7282
  0
VERTEX
  8
LAYER_1
 10
9.4725
 20
-144.921
  0
SEQEND
  0
ENDBLK
  0
BLOCK
  8
LAYER_1
  2
AIGNBL01020039
 70
64
 10
0
 20
0
 30
0
  3
AIGNBL01020039
  0
POLYLINE
  8
LAYER_1
 40
0.1764
 41
0.1764
 62
3
 66
1
 10
0
 20
0
 30
0
  0
VERTEX
  8
LAYER_1
 10
11.8554
 20
-137.3695
  0
VERTEX
  8
LAYER_1
 10
19.8554
 20
-123.5132
  0
VERTEX
  8
LAYER_1
 10
23.6054
 20
-130.011
  0
SEQEND
  0
POLYLINE
  8
LAYER_1
 40
0.1764
 41
0.1764
 62
3
 66
1
 10
0
 20
0
 30
0
  0
VERTEX
  8
LAYER_1
 10
18.8559
 20
-125.2443
  0
VERTEX
  8
LAYER_1
 10
19.8554
 20
-123.5132
  0
SEQEND
  0
POLYLINE
  8
LAYER_1
 40
0.1764
 41
0.1764
 62
3
 66
1
 10
0
 20
0
 30
0
  0
VERTEX
  8
LAYER_1
 10
17.8564
 20
-126.9754
  0
VERTEX
  8
LAYER_1
 10
18.8559
 20
-125.2443
  0
SEQEND
  0
POLYLINE
  8
LAYER_1
 40
0.1764
 41
0.1764
 62
3
 66
1
 10
0
 20
0
 30
0
  0
VERTEX
  8
LAYER_1
 10
16.857
 20
-128.7065
  0
VERTEX
  8
LAYER_1
 10
17.8564
 20
-126.9754
  0
SEQEND
  0
POLYLINE
  8
LAYER_1
 40
0.1764
 41
0.1764
 62
3
 66
1
 10
0
 20
0
 30
0
  0
VERTEX
  8
LAYER_1
 10
15.8575
 20
-130.4377
  0
VERTEX
  8
LAYER_1
 10
16.857
 20
-128.7065
  0
SEQEND
  0
POLYLINE
  8
LAYER_1
 40
0.1764
 41
0.1764
 62
3
 66
1
 10
0
 20
0
 30
0
  0
VERTEX
  8
LAYER_1
 10
14.8581
 20
-132.1688
  0
VERTEX
  8
LAYER_1
 10
15.8575
 20
-130.4377
  0
SEQEND
  0
POLYLINE
  8
LAYER_1
 40
0.1764
 41
0.1764
 62
3
 66
1
 10
0
 20
0
 30
0
  0
VERTEX
  8
LAYER_1
 10
13.8586
 20
-133.8999
  0
VERTEX
  8
LAYER_1
 10
14.8581
 20
-132.1688
  0
SEQEND
  0
POLYLINE
  8
LAYER_1
 40
0.1764
 41
0.1764
 62
3
 66
1
 10
0
 20
0
 30
0
  0
VERTEX
  8
LAYER_1
 10
12.8591
 20
-135.631
  0
VERTEX
  8
LAYER_1
 10
13.8586
 20
-133.8999
  0
SEQEND
  0
POLYLINE
  8
LAYER_1
 40
0.1764
 41
0.1764
 62
3
 66
1
 10
0
 20
0
 30
0
  0
VERTEX
  8
LAYER_1
 10
18.8559
 20
-125.2443
  0
VERTEX
  8
LAYER_1
 10
22.8228
 20
-132.1118
  0
SEQEND
  0
POLYLINE
  8
LAYER_1
 40
0.1764
 41
0.1764
 62
3
 66
1
 10
0
 20
0
 30
0
  0
VERTEX
  8
LAYER_1
 10
17.8565
 20
-126.9754
  0
VERTEX
  8
LAYER_1
 10
21.6889
 20
-133.6185
  0
SEQEND
  0
POLYLINE
  8
LAYER_1
 40
0.1764
 41
0.1764
 62
3
 66
1
 10
0
 20
0
 30
0
  0
VERTEX
  8
LAYER_1
 10
16.857
 20
-128.7065
  0
VERTEX
  8
LAYER_1
 10
20.6519
 20
-135.2791
  0
SEQEND
  0
POLYLINE
  8
LAYER_1
 40
0.1764
 41
0.1764
 62
3
 66
1
 10
0
 20
0
 30
0
  0
VERTEX
  8
LAYER_1
 10
19.8589
 20
-137.3641
  0
VERTEX
  8
LAYER_1
 10
23.8567
 20
-130.4396
  0
SEQEND
  0
POLYLINE
  8
LAYER_1
 40
0.1764
 41
0.1764
 62
3
 66
1
 10
0
 20
0
 30
0
  0
VERTEX
  8
LAYER_1
 10
23.6054
 20
-130.0109
  0
VERTEX
  8
LAYER_1
 10
23.8567
 20
-130.4396
  0
SEQEND
  0
POLYLINE
  8
LAYER_1
 40
0.1764
 41
0.1764
 62
3
 66
1
 10
0
 20
0
 30
0
  0
VERTEX
  8
LAYER_1
 10
21.6889
 20
-133.6185
  0
VERTEX
  8
LAYER_1
 10
21.8578
 20
-133.9019
  0
SEQEND
  0
POLYLINE
  8
LAYER_1
 40
0.1764
 41
0.1764
 62
3
 66
1
 10
0
 20
0
 30
0
  0
VERTEX
  8
LAYER_1
 10
20.6519
 20
-135.2791
  0
VERTEX
  8
LAYER_1
 10
20.8583
 20
-135.633
  0
SEQEND
  0
POLYLINE
  8
LAYER_1
 40
0.1764
 41
0.1764
 62
3
 66
1
 10
0
 20
0
 30
0
  0
VERTEX
  8
LAYER_1
 10
11.8554
 20
-137.3695
  0
VERTEX
  8
LAYER_1
 10
19.8589
 20
-137.3641
  0
SEQEND
  0
POLYLINE
  8
LAYER_1
 40
0.1764
 41
0.1764
 62
3
 66
1
 10
0
 20
0
 30
0
  0
VERTEX
  8
LAYER_1
 10
15.8575
 20
-130.4376
  0
VERTEX
  8
LAYER_1
 10
19.8589
 20
-137.3641
  0
SEQEND
  0
POLYLINE
  8
LAYER_1
 40
0.1764
 41
0.1764
 62
3
 66
1
 10
0
 20
0
 30
0
  0
VERTEX
  8
LAYER_1
 10
14.8581
 20
-132.1688
  0
VERTEX
  8
LAYER_1
 10
16.8542
 20
-132.1671
  0
SEQEND
  0
POLYLINE
  8
LAYER_1
 40
0.1764
 41
0.1764
 62
3
 66
1
 10
0
 20
0
 30
0
  0
VERTEX
  8
LAYER_1
 10
13.8586
 20
-133.8999
  0
VERTEX
  8
LAYER_1
 10
17.8582
 20
-133.9009
  0
SEQEND
  0
POLYLINE
  8
LAYER_1
 40
0.1764
 41
0.1764
 62
3
 66
1
 10
0
 20
0
 30
0
  0
VERTEX
  8
LAYER_1
 10
12.8591
 20
-135.631
  0
VERTEX
  8
LAYER_1
 10
18.8549
 20
-135.6304
  0
SEQEND
  0
ENDBLK
  0
BLOCK
  8
LAYER_1
  2
AIGNBL0102003C
 70
64
 10
0
 20
0
 30
0
  3
AIGNBL0102003C
  0
POLYLINE
  8
LAYER_1
 40
0.1764
 41
0.1764
 62
3
 66
1
 10
0
 20
0
 30
0
  0
VERTEX
  8
LAYER_1
 10
-1.5607
 20
-115.268
  0
VERTEX
  8
LAYER_1
 10
-17.5606
 20
-115.268
  0
VERTEX
  8
LAYER_1
 10
-13.8084
 20
-108.7715
  0
SEQEND
  0
POLYLINE
  8
LAYER_1
 40
0.1764
 41
0.1764
 62
3
 66
1
 10
0
 20
0
 30
0
  0
VERTEX
  8
LAYER_1
 10
-15.5617
 20
-115.268
  0
VERTEX
  8
LAYER_1
 10
-17.5606
 20
-115.268
  0
SEQEND
  0
POLYLINE
  8
LAYER_1
 40
0.1764
 41
0.1764
 62
3
 66
1
 10
0
 20
0
 30
0
  0
VERTEX
  8
LAYER_1
 10
-13.5627
 20
-115.268
  0
VERTEX
  8
LAYER_1
 10
-15.5617
 20
-115.268
  0
SEQEND
  0
POLYLINE
  8
LAYER_1
 40
0.1764
 41
0.1764
 62
3
 66
1
 10
0
 20
0
 30
0
  0
VERTEX
  8
LAYER_1
 10
-11.5638
 20
-115.268
  0
VERTEX
  8
LAYER_1
 10
-13.5627
 20
-115.268
  0
SEQEND
  0
POLYLINE
  8
LAYER_1
 40
0.1764
 41
0.1764
 62
3
 66
1
 10
0
 20
0
 30
0
  0
VERTEX
  8
LAYER_1
 10
-9.5649
 20
-115.268
  0
VERTEX
  8
LAYER_1
 10
-11.5638
 20
-115.268
  0
SEQEND
  0
POLYLINE
  8
LAYER_1
 40
0.1764
 41
0.1764
 62
3
 66
1
 10
0
 20
0
 30
0
  0
VERTEX
  8
LAYER_1
 10
-7.5659
 20
-115.268
  0
VERTEX
  8
LAYER_1
 10
-9.5649
 20
-115.268
  0
SEQEND
  0
POLYLINE
  8
LAYER_1
 40
0.1764
 41
0.1764
 62
3
 66
1
 10
0
 20
0
 30
0
  0
VERTEX
  8
LAYER_1
 10
-5.567
 20
-115.268
  0
VERTEX
  8
LAYER_1
 10
-7.5659
 20
-115.268
  0
SEQEND
  0
POLYLINE
  8
LAYER_1
 40
0.1764
 41
0.1764
 62
3
 66
1
 10
0
 20
0
 30
0
  0
VERTEX
  8
LAYER_1
 10
-3.5681
 20
-115.268
  0
VERTEX
  8
LAYER_1
 10
-5.567
 20
-115.268
  0
SEQEND
  0
POLYLINE
  8
LAYER_1
 40
0.1764
 41
0.1764
 62
3
 66
1
 10
0
 20
0
 30
0
  0
VERTEX
  8
LAYER_1
 10
-15.5617
 20
-115.268
  0
VERTEX
  8
LAYER_1
 10
-11.5977
 20
-108.3988
  0
SEQEND
  0
POLYLINE
  8
LAYER_1
 40
0.1764
 41
0.1764
 62
3
 66
1
 10
0
 20
0
 30
0
  0
VERTEX
  8
LAYER_1
 10
-13.5628
 20
-115.268
  0
VERTEX
  8
LAYER_1
 10
-9.7258
 20
-108.6275
  0
SEQEND
  0
POLYLINE
  8
LAYER_1
 40
0.1764
 41
0.1764
 62
3
 66
1
 10
0
 20
0
 30
0
  0
VERTEX
  8
LAYER_1
 10
-11.5638
 20
-115.268
  0
VERTEX
  8
LAYER_1
 10
-7.7692
 20
-108.6952
  0
SEQEND
  0
POLYLINE
  8
LAYER_1
 40
0.1764
 41
0.1764
 62
3
 66
1
 10
0
 20
0
 30
0
  0
VERTEX
  8
LAYER_1
 10
-5.567
 20
-108.3395
  0
VERTEX
  8
LAYER_1
 10
-13.5628
 20
-108.3395
  0
SEQEND
  0
POLYLINE
  8
LAYER_1
 40
0.1764
 41
0.1764
 62
3
 66
1
 10
0
 20
0
 30
0
  0
VERTEX
  8
LAYER_1
 10
-13.8084
 20
-108.7715
  0
VERTEX
  8
LAYER_1
 10
-13.5628
 20
-108.3395
  0
SEQEND
  0
POLYLINE
  8
LAYER_1
 40
0.1764
 41
0.1764
 62
3
 66
1
 10
0
 20
0
 30
0
  0
VERTEX
  8
LAYER_1
 10
-9.7258
 20
-108.6275
  0
VERTEX
  8
LAYER_1
 10
-9.5649
 20
-108.3395
  0
SEQEND
  0
POLYLINE
  8
LAYER_1
 40
0.1764
 41
0.1764
 62
3
 66
1
 10
0
 20
0
 30
0
  0
VERTEX
  8
LAYER_1
 10
-7.7692
 20
-108.6952
  0
VERTEX
  8
LAYER_1
 10
-7.566
 20
-108.3395
  0
SEQEND
  0
POLYLINE
  8
LAYER_1
 40
0.1764
 41
0.1764
 62
3
 66
1
 10
0
 20
0
 30
0
  0
VERTEX
  8
LAYER_1
 10
-1.5607
 20
-115.268
  0
VERTEX
  8
LAYER_1
 10
-5.567
 20
-108.3395
  0
SEQEND
  0
POLYLINE
  8
LAYER_1
 40
0.1764
 41
0.1764
 62
3
 66
1
 10
0
 20
0
 30
0
  0
VERTEX
  8
LAYER_1
 10
-9.5649
 20
-115.268
  0
VERTEX
  8
LAYER_1
 10
-5.567
 20
-108.3395
  0
SEQEND
  0
POLYLINE
  8
LAYER_1
 40
0.1764
 41
0.1764
 62
3
 66
1
 10
0
 20
0
 30
0
  0
VERTEX
  8
LAYER_1
 10
-7.566
 20
-115.268
  0
VERTEX
  8
LAYER_1
 10
-8.5654
 20
-113.5401
  0
SEQEND
  0
POLYLINE
  8
LAYER_1
 40
0.1764
 41
0.1764
 62
3
 66
1
 10
0
 20
0
 30
0
  0
VERTEX
  8
LAYER_1
 10
-5.567
 20
-115.268
  0
VERTEX
  8
LAYER_1
 10
-7.566
 20
-111.8038
  0
SEQEND
  0
POLYLINE
  8
LAYER_1
 40
0.1764
 41
0.1764
 62
3
 66
1
 10
0
 20
0
 30
0
  0
VERTEX
  8
LAYER_1
 10
-3.5681
 20
-115.268
  0
VERTEX
  8
LAYER_1
 10
-6.5665
 20
-110.0759
  0
SEQEND
  0
ENDBLK
  0
BLOCK
  8
LAYER_1
  2
AIGNBL0102003F
 70
64
 10
0
 20
0
 30
0
  3
AIGNBL0102003F
  0
POLYLINE
  8
LAYER_1
 40
0.1764
 41
0.1764
 62
3
 66
1
 10
0
 20
0
 30
0
  0
VERTEX
  8
LAYER_1
 10
-1.1364
 20
-115.949
  0
VERTEX
  8
LAYER_1
 10
6.8635
 20
-129.8054
  0
VERTEX
  8
LAYER_1
 10
-0.6387
 20
-129.8041
  0
SEQEND
  0
POLYLINE
  8
LAYER_1
 40
0.1764
 41
0.1764
 62
3
 66
1
 10
0
 20
0
 30
0
  0
VERTEX
  8
LAYER_1
 10
5.8641
 20
-128.0743
  0
VERTEX
  8
LAYER_1
 10
6.8635
 20
-129.8054
  0
SEQEND
  0
POLYLINE
  8
LAYER_1
 40
0.1764
 41
0.1764
 62
3
 66
1
 10
0
 20
0
 30
0
  0
VERTEX
  8
LAYER_1
 10
4.8646
 20
-126.3431
  0
VERTEX
  8
LAYER_1
 10
5.8641
 20
-128.0743
  0
SEQEND
  0
POLYLINE
  8
LAYER_1
 40
0.1764
 41
0.1764
 62
3
 66
1
 10
0
 20
0
 30
0
  0
VERTEX
  8
LAYER_1
 10
3.8651
 20
-124.612
  0
VERTEX
  8
LAYER_1
 10
4.8646
 20
-126.3431
  0
SEQEND
  0
POLYLINE
  8
LAYER_1
 40
0.1764
 41
0.1764
 62
3
 66
1
 10
0
 20
0
 30
0
  0
VERTEX
  8
LAYER_1
 10
2.8657
 20
-122.8809
  0
VERTEX
  8
LAYER_1
 10
3.8651
 20
-124.612
  0
SEQEND
  0
POLYLINE
  8
LAYER_1
 40
0.1764
 41
0.1764
 62
3
 66
1
 10
0
 20
0
 30
0
  0
VERTEX
  8
LAYER_1
 10
1.8662
 20
-121.1498
  0
VERTEX
  8
LAYER_1
 10
2.8657
 20
-122.8809
  0
SEQEND
  0
POLYLINE
  8
LAYER_1
 40
0.1764
 41
0.1764
 62
3
 66
1
 10
0
 20
0
 30
0
  0
VERTEX
  8
LAYER_1
 10
0.8667
 20
-119.4187
  0
VERTEX
  8
LAYER_1
 10
1.8662
 20
-121.1498
  0
SEQEND
  0
POLYLINE
  8
LAYER_1
 40
0.1764
 41
0.1764
 62
3
 66
1
 10
0
 20
0
 30
0
  0
VERTEX
  8
LAYER_1
 10
-0.1327
 20
-117.6875
  0
VERTEX
  8
LAYER_1
 10
0.8667
 20
-119.4187
  0
SEQEND
  0
POLYLINE
  8
LAYER_1
 40
0.1764
 41
0.1764
 62
3
 66
1
 10
0
 20
0
 30
0
  0
VERTEX
  8
LAYER_1
 10
5.8641
 20
-128.0743
  0
VERTEX
  8
LAYER_1
 10
-2.0668
 20
-128.076
  0
SEQEND
  0
POLYLINE
  8
LAYER_1
 40
0.1764
 41
0.1764
 62
3
 66
1
 10
0
 20
0
 30
0
  0
VERTEX
  8
LAYER_1
 10
4.8646
 20
-126.3432
  0
VERTEX
  8
LAYER_1
 10
-2.8047
 20
-126.3406
  0
SEQEND
  0
POLYLINE
  8
LAYER_1
 40
0.1764
 41
0.1764
 62
3
 66
1
 10
0
 20
0
 30
0
  0
VERTEX
  8
LAYER_1
 10
3.8652
 20
-124.612
  0
VERTEX
  8
LAYER_1
 10
-3.7243
 20
-124.6122
  0
SEQEND
  0
POLYLINE
  8
LAYER_1
 40
0.1764
 41
0.1764
 62
3
 66
1
 10
0
 20
0
 30
0
  0
VERTEX
  8
LAYER_1
 10
-5.1335
 20
-122.8829
  0
VERTEX
  8
LAYER_1
 10
-1.1356
 20
-129.8074
  0
SEQEND
  0
POLYLINE
  8
LAYER_1
 40
0.1764
 41
0.1764
 62
3
 66
1
 10
0
 20
0
 30
0
  0
VERTEX
  8
LAYER_1
 10
-0.6387
 20
-129.8042
  0
VERTEX
  8
LAYER_1
 10
-1.1356
 20
-129.8074
  0
SEQEND
  0
POLYLINE
  8
LAYER_1
 40
0.1764
 41
0.1764
 62
3
 66
1
 10
0
 20
0
 30
0
  0
VERTEX
  8
LAYER_1
 10
-2.8047
 20
-126.3406
  0
VERTEX
  8
LAYER_1
 10
-3.1346
 20
-126.3452
  0
SEQEND
  0
POLYLINE
  8
LAYER_1
 40
0.1764
 41
0.1764
 62
3
 66
1
 10
0
 20
0
 30
0
  0
VERTEX
  8
LAYER_1
 10
-3.7243
 20
-124.6122
  0
VERTEX
  8
LAYER_1
 10
-4.134
 20
-124.6141
  0
SEQEND
  0
POLYLINE
  8
LAYER_1
 40
0.1764
 41
0.1764
 62
3
 66
1
 10
0
 20
0
 30
0
  0
VERTEX
  8
LAYER_1
 10
-1.1364
 20
-115.9491
  0
VERTEX
  8
LAYER_1
 10
-5.1335
 20
-122.8829
  0
SEQEND
  0
POLYLINE
  8
LAYER_1
 40
0.1764
 41
0.1764
 62
3
 66
1
 10
0
 20
0
 30
0
  0
VERTEX
  8
LAYER_1
 10
2.8657
 20
-122.8809
  0
VERTEX
  8
LAYER_1
 10
-5.1335
 20
-122.8829
  0
SEQEND
  0
POLYLINE
  8
LAYER_1
 40
0.1764
 41
0.1764
 62
3
 66
1
 10
0
 20
0
 30
0
  0
VERTEX
  8
LAYER_1
 10
1.8662
 20
-121.1498
  0
VERTEX
  8
LAYER_1
 10
0.8696
 20
-122.8793
  0
SEQEND
  0
POLYLINE
  8
LAYER_1
 40
0.1764
 41
0.1764
 62
3
 66
1
 10
0
 20
0
 30
0
  0
VERTEX
  8
LAYER_1
 10
0.8668
 20
-119.4187
  0
VERTEX
  8
LAYER_1
 10
-1.1339
 20
-122.8819
  0
SEQEND
  0
POLYLINE
  8
LAYER_1
 40
0.1764
 41
0.1764
 62
3
 66
1
 10
0
 20
0
 30
0
  0
VERTEX
  8
LAYER_1
 10
-0.1327
 20
-117.6876
  0
VERTEX
  8
LAYER_1
 10
-3.13
 20
-122.8803
  0
SEQEND
  0
ENDBLK
  0
BLOCK
  8
LAYER_1
  2
AIGNBL01020042
 70
64
 10
0
 20
0
 30
0
  3
AIGNBL01020042
  0
POLYLINE
  8
LAYER_1
 40
0.1764
 41
0.1764
 62
3
 66
1
 10
0
 20
0
 30
0
  0
VERTEX
  8
LAYER_1
 10
-0.7471
 20
-115.3289
  0
VERTEX
  8
LAYER_1
 10
7.2529
 20
-101.4725
  0
VERTEX
  8
LAYER_1
 10
11.0029
 20
-107.9703
  0
SEQEND
  0
POLYLINE
  8
LAYER_1
 40
0.1764
 41
0.1764
 62
3
 66
1
 10
0
 20
0
 30
0
  0
VERTEX
  8
LAYER_1
 10
6.2534
 20
-103.2036
  0
VERTEX
  8
LAYER_1
 10
7.2529
 20
-101.4725
  0
SEQEND
  0
POLYLINE
  8
LAYER_1
 40
0.1764
 41
0.1764
 62
3
 66
1
 10
0
 20
0
 30
0
  0
VERTEX
  8
LAYER_1
 10
5.2539
 20
-104.9348
  0
VERTEX
  8
LAYER_1
 10
6.2534
 20
-103.2036
  0
SEQEND
  0
POLYLINE
  8
LAYER_1
 40
0.1764
 41
0.1764
 62
3
 66
1
 10
0
 20
0
 30
0
  0
VERTEX
  8
LAYER_1
 10
4.2545
 20
-106.6659
  0
VERTEX
  8
LAYER_1
 10
5.2539
 20
-104.9348
  0
SEQEND
  0
POLYLINE
  8
LAYER_1
 40
0.1764
 41
0.1764
 62
3
 66
1
 10
0
 20
0
 30
0
  0
VERTEX
  8
LAYER_1
 10
3.255
 20
-108.397
  0
VERTEX
  8
LAYER_1
 10
4.2545
 20
-106.6659
  0
SEQEND
  0
POLYLINE
  8
LAYER_1
 40
0.1764
 41
0.1764
 62
3
 66
1
 10
0
 20
0
 30
0
  0
VERTEX
  8
LAYER_1
 10
2.2555
 20
-110.1281
  0
VERTEX
  8
LAYER_1
 10
3.255
 20
-108.397
  0
SEQEND
  0
POLYLINE
  8
LAYER_1
 40
0.1764
 41
0.1764
 62
3
 66
1
 10
0
 20
0
 30
0
  0
VERTEX
  8
LAYER_1
 10
1.2561
 20
-111.8592
  0
VERTEX
  8
LAYER_1
 10
2.2555
 20
-110.1281
  0
SEQEND
  0
POLYLINE
  8
LAYER_1
 40
0.1764
 41
0.1764
 62
3
 66
1
 10
0
 20
0
 30
0
  0
VERTEX
  8
LAYER_1
 10
0.2566
 20
-113.5904
  0
VERTEX
  8
LAYER_1
 10
1.2561
 20
-111.8592
  0
SEQEND
  0
POLYLINE
  8
LAYER_1
 40
0.1764
 41
0.1764
 62
3
 66
1
 10
0
 20
0
 30
0
  0
VERTEX
  8
LAYER_1
 10
6.2534
 20
-103.2036
  0
VERTEX
  8
LAYER_1
 10
10.2203
 20
-110.0711
  0
SEQEND
  0
POLYLINE
  8
LAYER_1
 40
0.1764
 41
0.1764
 62
3
 66
1
 10
0
 20
0
 30
0
  0
VERTEX
  8
LAYER_1
 10
5.2539
 20
-104.9347
  0
VERTEX
  8
LAYER_1
 10
9.0863
 20
-111.5779
  0
SEQEND
  0
POLYLINE
  8
LAYER_1
 40
0.1764
 41
0.1764
 62
3
 66
1
 10
0
 20
0
 30
0
  0
VERTEX
  8
LAYER_1
 10
4.2545
 20
-106.6659
  0
VERTEX
  8
LAYER_1
 10
8.0494
 20
-113.2384
  0
SEQEND
  0
POLYLINE
  8
LAYER_1
 40
0.1764
 41
0.1764
 62
3
 66
1
 10
0
 20
0
 30
0
  0
VERTEX
  8
LAYER_1
 10
7.2563
 20
-115.3235
  0
VERTEX
  8
LAYER_1
 10
11.2542
 20
-108.399
  0
SEQEND
  0
POLYLINE
  8
LAYER_1
 40
0.1764
 41
0.1764
 62
3
 66
1
 10
0
 20
0
 30
0
  0
VERTEX
  8
LAYER_1
 10
11.0029
 20
-107.9703
  0
VERTEX
  8
LAYER_1
 10
11.2542
 20
-108.399
  0
SEQEND
  0
POLYLINE
  8
LAYER_1
 40
0.1764
 41
0.1764
 62
3
 66
1
 10
0
 20
0
 30
0
  0
VERTEX
  8
LAYER_1
 10
9.0863
 20
-111.5779
  0
VERTEX
  8
LAYER_1
 10
9.2553
 20
-111.8612
  0
SEQEND
  0
POLYLINE
  8
LAYER_1
 40
0.1764
 41
0.1764
 62
3
 66
1
 10
0
 20
0
 30
0
  0
VERTEX
  8
LAYER_1
 10
8.0494
 20
-113.2384
  0
VERTEX
  8
LAYER_1
 10
8.2558
 20
-113.5924
  0
SEQEND
  0
POLYLINE
  8
LAYER_1
 40
0.1764
 41
0.1764
 62
3
 66
1
 10
0
 20
0
 30
0
  0
VERTEX
  8
LAYER_1
 10
-0.7471
 20
-115.3288
  0
VERTEX
  8
LAYER_1
 10
7.2564
 20
-115.3235
  0
SEQEND
  0
POLYLINE
  8
LAYER_1
 40
0.1764
 41
0.1764
 62
3
 66
1
 10
0
 20
0
 30
0
  0
VERTEX
  8
LAYER_1
 10
3.255
 20
-108.397
  0
VERTEX
  8
LAYER_1
 10
7.2564
 20
-115.3235
  0
SEQEND
  0
POLYLINE
  8
LAYER_1
 40
0.1764
 41
0.1764
 62
3
 66
1
 10
0
 20
0
 30
0
  0
VERTEX
  8
LAYER_1
 10
2.2556
 20
-110.1281
  0
VERTEX
  8
LAYER_1
 10
4.2517
 20
-110.1265
  0
SEQEND
  0
POLYLINE
  8
LAYER_1
 40
0.1764
 41
0.1764
 62
3
 66
1
 10
0
 20
0
 30
0
  0
VERTEX
  8
LAYER_1
 10
1.2561
 20
-111.8592
  0
VERTEX
  8
LAYER_1
 10
5.2557
 20
-111.8602
  0
SEQEND
  0
POLYLINE
  8
LAYER_1
 40
0.1764
 41
0.1764
 62
3
 66
1
 10
0
 20
0
 30
0
  0
VERTEX
  8
LAYER_1
 10
0.2566
 20
-113.5903
  0
VERTEX
  8
LAYER_1
 10
6.2524
 20
-113.5897
  0
SEQEND
  0
ENDBLK
  0
BLOCK
  8
LAYER_1
  2
AIGNBL01020045
 70
64
 10
0
 20
0
 30
0
  3
AIGNBL01020045
  0
POLYLINE
  8
LAYER_1
 40
0.1764
 41
0.1764
 62
3
 66
1
 10
0
 20
0
 30
0
  0
VERTEX
  8
LAYER_1
 10
24.0723
 20
-159.3432
  0
VERTEX
  8
LAYER_1
 10
8.0724
 20
-159.3432
  0
VERTEX
  8
LAYER_1
 10
11.8246
 20
-152.8466
  0
SEQEND
  0
POLYLINE
  8
LAYER_1
 40
0.1764
 41
0.1764
 62
3
 66
1
 10
0
 20
0
 30
0
  0
VERTEX
  8
LAYER_1
 10
10.0713
 20
-159.3432
  0
VERTEX
  8
LAYER_1
 10
8.0724
 20
-159.3432
  0
SEQEND
  0
POLYLINE
  8
LAYER_1
 40
0.1764
 41
0.1764
 62
3
 66
1
 10
0
 20
0
 30
0
  0
VERTEX
  8
LAYER_1
 10
12.0703
 20
-159.3432
  0
VERTEX
  8
LAYER_1
 10
10.0713
 20
-159.3432
  0
SEQEND
  0
POLYLINE
  8
LAYER_1
 40
0.1764
 41
0.1764
 62
3
 66
1
 10
0
 20
0
 30
0
  0
VERTEX
  8
LAYER_1
 10
14.0692
 20
-159.3432
  0
VERTEX
  8
LAYER_1
 10
12.0703
 20
-159.3432
  0
SEQEND
  0
POLYLINE
  8
LAYER_1
 40
0.1764
 41
0.1764
 62
3
 66
1
 10
0
 20
0
 30
0
  0
VERTEX
  8
LAYER_1
 10
16.0681
 20
-159.3432
  0
VERTEX
  8
LAYER_1
 10
14.0692
 20
-159.3432
  0
SEQEND
  0
POLYLINE
  8
LAYER_1
 40
0.1764
 41
0.1764
 62
3
 66
1
 10
0
 20
0
 30
0
  0
VERTEX
  8
LAYER_1
 10
18.067
 20
-159.3432
  0
VERTEX
  8
LAYER_1
 10
16.0681
 20
-159.3432
  0
SEQEND
  0
POLYLINE
  8
LAYER_1
 40
0.1764
 41
0.1764
 62
3
 66
1
 10
0
 20
0
 30
0
  0
VERTEX
  8
LAYER_1
 10
20.066
 20
-159.3432
  0
VERTEX
  8
LAYER_1
 10
18.067
 20
-159.3432
  0
SEQEND
  0
POLYLINE
  8
LAYER_1
 40
0.1764
 41
0.1764
 62
3
 66
1
 10
0
 20
0
 30
0
  0
VERTEX
  8
LAYER_1
 10
22.0649
 20
-159.3432
  0
VERTEX
  8
LAYER_1
 10
20.066
 20
-159.3432
  0
SEQEND
  0
POLYLINE
  8
LAYER_1
 40
0.1764
 41
0.1764
 62
3
 66
1
 10
0
 20
0
 30
0
  0
VERTEX
  8
LAYER_1
 10
10.0713
 20
-159.3432
  0
VERTEX
  8
LAYER_1
 10
14.0353
 20
-152.4739
  0
SEQEND
  0
POLYLINE
  8
LAYER_1
 40
0.1764
 41
0.1764
 62
3
 66
1
 10
0
 20
0
 30
0
  0
VERTEX
  8
LAYER_1
 10
12.0702
 20
-159.3432
  0
VERTEX
  8
LAYER_1
 10
15.9072
 20
-152.7026
  0
SEQEND
  0
POLYLINE
  8
LAYER_1
 40
0.1764
 41
0.1764
 62
3
 66
1
 10
0
 20
0
 30
0
  0
VERTEX
  8
LAYER_1
 10
14.0692
 20
-159.3432
  0
VERTEX
  8
LAYER_1
 10
17.8637
 20
-152.7704
  0
SEQEND
  0
POLYLINE
  8
LAYER_1
 40
0.1764
 41
0.1764
 62
3
 66
1
 10
0
 20
0
 30
0
  0
VERTEX
  8
LAYER_1
 10
20.066
 20
-152.4146
  0
VERTEX
  8
LAYER_1
 10
12.0702
 20
-152.4146
  0
SEQEND
  0
POLYLINE
  8
LAYER_1
 40
0.1764
 41
0.1764
 62
3
 66
1
 10
0
 20
0
 30
0
  0
VERTEX
  8
LAYER_1
 10
11.8246
 20
-152.8466
  0
VERTEX
  8
LAYER_1
 10
12.0702
 20
-152.4146
  0
SEQEND
  0
POLYLINE
  8
LAYER_1
 40
0.1764
 41
0.1764
 62
3
 66
1
 10
0
 20
0
 30
0
  0
VERTEX
  8
LAYER_1
 10
15.9072
 20
-152.7026
  0
VERTEX
  8
LAYER_1
 10
16.0681
 20
-152.4146
  0
SEQEND
  0
POLYLINE
  8
LAYER_1
 40
0.1764
 41
0.1764
 62
3
 66
1
 10
0
 20
0
 30
0
  0
VERTEX
  8
LAYER_1
 10
17.8637
 20
-152.7704
  0
VERTEX
  8
LAYER_1
 10
18.067
 20
-152.4146
  0
SEQEND
  0
POLYLINE
  8
LAYER_1
 40
0.1764
 41
0.1764
 62
3
 66
1
 10
0
 20
0
 30
0
  0
VERTEX
  8
LAYER_1
 10
24.0723
 20
-159.3431
  0
VERTEX
  8
LAYER_1
 10
20.0659
 20
-152.4146
  0
SEQEND
  0
POLYLINE
  8
LAYER_1
 40
0.1764
 41
0.1764
 62
3
 66
1
 10
0
 20
0
 30
0
  0
VERTEX
  8
LAYER_1
 10
16.0681
 20
-159.3431
  0
VERTEX
  8
LAYER_1
 10
20.0659
 20
-152.4146
  0
SEQEND
  0
POLYLINE
  8
LAYER_1
 40
0.1764
 41
0.1764
 62
3
 66
1
 10
0
 20
0
 30
0
  0
VERTEX
  8
LAYER_1
 10
18.067
 20
-159.3431
  0
VERTEX
  8
LAYER_1
 10
17.0675
 20
-157.6153
  0
SEQEND
  0
POLYLINE
  8
LAYER_1
 40
0.1764
 41
0.1764
 62
3
 66
1
 10
0
 20
0
 30
0
  0
VERTEX
  8
LAYER_1
 10
20.0659
 20
-159.3431
  0
VERTEX
  8
LAYER_1
 10
18.067
 20
-155.8789
  0
SEQEND
  0
POLYLINE
  8
LAYER_1
 40
0.1764
 41
0.1764
 62
3
 66
1
 10
0
 20
0
 30
0
  0
VERTEX
  8
LAYER_1
 10
22.0649
 20
-159.3431
  0
VERTEX
  8
LAYER_1
 10
19.0665
 20
-154.151
  0
SEQEND
  0
ENDBLK
  0
BLOCK
  8
LAYER_1
  2
AIGNBL01020048
 70
64
 10
0
 20
0
 30
0
  3
AIGNBL01020048
  0
POLYLINE
  8
LAYER_1
 40
0.1764
 41
0.1764
 62
3
 66
1
 10
0
 20
0
 30
0
  0
VERTEX
  8
LAYER_1
 10
24.4965
 20
-160.0242
  0
VERTEX
  8
LAYER_1
 10
32.4965
 20
-173.8805
  0
VERTEX
  8
LAYER_1
 10
24.9942
 20
-173.8793
  0
SEQEND
  0
POLYLINE
  8
LAYER_1
 40
0.1764
 41
0.1764
 62
3
 66
1
 10
0
 20
0
 30
0
  0
VERTEX
  8
LAYER_1
 10
31.497
 20
-172.1494
  0
VERTEX
  8
LAYER_1
 10
32.4965
 20
-173.8805
  0
SEQEND
  0
POLYLINE
  8
LAYER_1
 40
0.1764
 41
0.1764
 62
3
 66
1
 10
0
 20
0
 30
0
  0
VERTEX
  8
LAYER_1
 10
30.4976
 20
-170.4183
  0
VERTEX
  8
LAYER_1
 10
31.497
 20
-172.1494
  0
SEQEND
  0
POLYLINE
  8
LAYER_1
 40
0.1764
 41
0.1764
 62
3
 66
1
 10
0
 20
0
 30
0
  0
VERTEX
  8
LAYER_1
 10
29.4981
 20
-168.6872
  0
VERTEX
  8
LAYER_1
 10
30.4976
 20
-170.4183
  0
SEQEND
  0
POLYLINE
  8
LAYER_1
 40
0.1764
 41
0.1764
 62
3
 66
1
 10
0
 20
0
 30
0
  0
VERTEX
  8
LAYER_1
 10
28.4986
 20
-166.956
  0
VERTEX
  8
LAYER_1
 10
29.4981
 20
-168.6872
  0
SEQEND
  0
POLYLINE
  8
LAYER_1
 40
0.1764
 41
0.1764
 62
3
 66
1
 10
0
 20
0
 30
0
  0
VERTEX
  8
LAYER_1
 10
27.4992
 20
-165.2249
  0
VERTEX
  8
LAYER_1
 10
28.4986
 20
-166.956
  0
SEQEND
  0
POLYLINE
  8
LAYER_1
 40
0.1764
 41
0.1764
 62
3
 66
1
 10
0
 20
0
 30
0
  0
VERTEX
  8
LAYER_1
 10
26.4997
 20
-163.4938
  0
VERTEX
  8
LAYER_1
 10
27.4992
 20
-165.2249
  0
SEQEND
  0
POLYLINE
  8
LAYER_1
 40
0.1764
 41
0.1764
 62
3
 66
1
 10
0
 20
0
 30
0
  0
VERTEX
  8
LAYER_1
 10
25.5003
 20
-161.7627
  0
VERTEX
  8
LAYER_1
 10
26.4997
 20
-163.4938
  0
SEQEND
  0
POLYLINE
  8
LAYER_1
 40
0.1764
 41
0.1764
 62
3
 66
1
 10
0
 20
0
 30
0
  0
VERTEX
  8
LAYER_1
 10
31.4971
 20
-172.1494
  0
VERTEX
  8
LAYER_1
 10
23.5661
 20
-172.1511
  0
SEQEND
  0
POLYLINE
  8
LAYER_1
 40
0.1764
 41
0.1764
 62
3
 66
1
 10
0
 20
0
 30
0
  0
VERTEX
  8
LAYER_1
 10
30.4976
 20
-170.4183
  0
VERTEX
  8
LAYER_1
 10
22.8283
 20
-170.4157
  0
SEQEND
  0
POLYLINE
  8
LAYER_1
 40
0.1764
 41
0.1764
 62
3
 66
1
 10
0
 20
0
 30
0
  0
VERTEX
  8
LAYER_1
 10
29.4981
 20
-168.6872
  0
VERTEX
  8
LAYER_1
 10
21.9087
 20
-168.6874
  0
SEQEND
  0
POLYLINE
  8
LAYER_1
 40
0.1764
 41
0.1764
 62
3
 66
1
 10
0
 20
0
 30
0
  0
VERTEX
  8
LAYER_1
 10
20.4995
 20
-166.9581
  0
VERTEX
  8
LAYER_1
 10
24.4973
 20
-173.8826
  0
SEQEND
  0
POLYLINE
  8
LAYER_1
 40
0.1764
 41
0.1764
 62
3
 66
1
 10
0
 20
0
 30
0
  0
VERTEX
  8
LAYER_1
 10
24.9943
 20
-173.8793
  0
VERTEX
  8
LAYER_1
 10
24.4973
 20
-173.8826
  0
SEQEND
  0
POLYLINE
  8
LAYER_1
 40
0.1764
 41
0.1764
 62
3
 66
1
 10
0
 20
0
 30
0
  0
VERTEX
  8
LAYER_1
 10
22.8283
 20
-170.4157
  0
VERTEX
  8
LAYER_1
 10
22.4984
 20
-170.4203
  0
SEQEND
  0
POLYLINE
  8
LAYER_1
 40
0.1764
 41
0.1764
 62
3
 66
1
 10
0
 20
0
 30
0
  0
VERTEX
  8
LAYER_1
 10
21.9087
 20
-168.6874
  0
VERTEX
  8
LAYER_1
 10
21.4989
 20
-168.6892
  0
SEQEND
  0
POLYLINE
  8
LAYER_1
 40
0.1764
 41
0.1764
 62
3
 66
1
 10
0
 20
0
 30
0
  0
VERTEX
  8
LAYER_1
 10
24.4966
 20
-160.0242
  0
VERTEX
  8
LAYER_1
 10
20.4995
 20
-166.9581
  0
SEQEND
  0
POLYLINE
  8
LAYER_1
 40
0.1764
 41
0.1764
 62
3
 66
1
 10
0
 20
0
 30
0
  0
VERTEX
  8
LAYER_1
 10
28.4987
 20
-166.9561
  0
VERTEX
  8
LAYER_1
 10
20.4995
 20
-166.9581
  0
SEQEND
  0
POLYLINE
  8
LAYER_1
 40
0.1764
 41
0.1764
 62
3
 66
1
 10
0
 20
0
 30
0
  0
VERTEX
  8
LAYER_1
 10
27.4992
 20
-165.2249
  0
VERTEX
  8
LAYER_1
 10
26.5025
 20
-166.9545
  0
SEQEND
  0
POLYLINE
  8
LAYER_1
 40
0.1764
 41
0.1764
 62
3
 66
1
 10
0
 20
0
 30
0
  0
VERTEX
  8
LAYER_1
 10
26.4997
 20
-163.4938
  0
VERTEX
  8
LAYER_1
 10
24.4991
 20
-166.9571
  0
SEQEND
  0
POLYLINE
  8
LAYER_1
 40
0.1764
 41
0.1764
 62
3
 66
1
 10
0
 20
0
 30
0
  0
VERTEX
  8
LAYER_1
 10
25.5003
 20
-161.7627
  0
VERTEX
  8
LAYER_1
 10
22.5029
 20
-166.9555
  0
SEQEND
  0
ENDBLK
  0
BLOCK
  8
LAYER_1
  2
AIGNBL0102004B
 70
64
 10
0
 20
0
 30
0
  3
AIGNBL0102004B
  0
POLYLINE
  8
LAYER_1
 40
0.1764
 41
0.1764
 62
3
 66
1
 10
0
 20
0
 30
0
  0
VERTEX
  8
LAYER_1
 10
24.8859
 20
-159.404
  0
VERTEX
  8
LAYER_1
 10
32.8858
 20
-145.5476
  0
VERTEX
  8
LAYER_1
 10
36.6359
 20
-152.0454
  0
SEQEND
  0
POLYLINE
  8
LAYER_1
 40
0.1764
 41
0.1764
 62
3
 66
1
 10
0
 20
0
 30
0
  0
VERTEX
  8
LAYER_1
 10
31.8864
 20
-147.2788
  0
VERTEX
  8
LAYER_1
 10
32.8858
 20
-145.5476
  0
SEQEND
  0
POLYLINE
  8
LAYER_1
 40
0.1764
 41
0.1764
 62
3
 66
1
 10
0
 20
0
 30
0
  0
VERTEX
  8
LAYER_1
 10
30.8869
 20
-149.0099
  0
VERTEX
  8
LAYER_1
 10
31.8864
 20
-147.2788
  0
SEQEND
  0
POLYLINE
  8
LAYER_1
 40
0.1764
 41
0.1764
 62
3
 66
1
 10
0
 20
0
 30
0
  0
VERTEX
  8
LAYER_1
 10
29.8874
 20
-150.741
  0
VERTEX
  8
LAYER_1
 10
30.8869
 20
-149.0099
  0
SEQEND
  0
POLYLINE
  8
LAYER_1
 40
0.1764
 41
0.1764
 62
3
 66
1
 10
0
 20
0
 30
0
  0
VERTEX
  8
LAYER_1
 10
28.888
 20
-152.4721
  0
VERTEX
  8
LAYER_1
 10
29.8874
 20
-150.741
  0
SEQEND
  0
POLYLINE
  8
LAYER_1
 40
0.1764
 41
0.1764
 62
3
 66
1
 10
0
 20
0
 30
0
  0
VERTEX
  8
LAYER_1
 10
27.8885
 20
-154.2033
  0
VERTEX
  8
LAYER_1
 10
28.888
 20
-152.4721
  0
SEQEND
  0
POLYLINE
  8
LAYER_1
 40
0.1764
 41
0.1764
 62
3
 66
1
 10
0
 20
0
 30
0
  0
VERTEX
  8
LAYER_1
 10
26.889
 20
-155.9344
  0
VERTEX
  8
LAYER_1
 10
27.8885
 20
-154.2033
  0
SEQEND
  0
POLYLINE
  8
LAYER_1
 40
0.1764
 41
0.1764
 62
3
 66
1
 10
0
 20
0
 30
0
  0
VERTEX
  8
LAYER_1
 10
25.8896
 20
-157.6655
  0
VERTEX
  8
LAYER_1
 10
26.889
 20
-155.9344
  0
SEQEND
  0
POLYLINE
  8
LAYER_1
 40
0.1764
 41
0.1764
 62
3
 66
1
 10
0
 20
0
 30
0
  0
VERTEX
  8
LAYER_1
 10
31.8864
 20
-147.2787
  0
VERTEX
  8
LAYER_1
 10
35.8533
 20
-154.1463
  0
SEQEND
  0
POLYLINE
  8
LAYER_1
 40
0.1764
 41
0.1764
 62
3
 66
1
 10
0
 20
0
 30
0
  0
VERTEX
  8
LAYER_1
 10
30.8869
 20
-149.0099
  0
VERTEX
  8
LAYER_1
 10
34.7193
 20
-155.653
  0
SEQEND
  0
POLYLINE
  8
LAYER_1
 40
0.1764
 41
0.1764
 62
3
 66
1
 10
0
 20
0
 30
0
  0
VERTEX
  8
LAYER_1
 10
29.8875
 20
-150.741
  0
VERTEX
  8
LAYER_1
 10
33.6823
 20
-157.3136
  0
SEQEND
  0
POLYLINE
  8
LAYER_1
 40
0.1764
 41
0.1764
 62
3
 66
1
 10
0
 20
0
 30
0
  0
VERTEX
  8
LAYER_1
 10
32.8893
 20
-159.3986
  0
VERTEX
  8
LAYER_1
 10
36.8872
 20
-152.4741
  0
SEQEND
  0
POLYLINE
  8
LAYER_1
 40
0.1764
 41
0.1764
 62
3
 66
1
 10
0
 20
0
 30
0
  0
VERTEX
  8
LAYER_1
 10
36.6359
 20
-152.0454
  0
VERTEX
  8
LAYER_1
 10
36.8872
 20
-152.4741
  0
SEQEND
  0
POLYLINE
  8
LAYER_1
 40
0.1764
 41
0.1764
 62
3
 66
1
 10
0
 20
0
 30
0
  0
VERTEX
  8
LAYER_1
 10
34.7193
 20
-155.653
  0
VERTEX
  8
LAYER_1
 10
34.8883
 20
-155.9364
  0
SEQEND
  0
POLYLINE
  8
LAYER_1
 40
0.1764
 41
0.1764
 62
3
 66
1
 10
0
 20
0
 30
0
  0
VERTEX
  8
LAYER_1
 10
33.6824
 20
-157.3136
  0
VERTEX
  8
LAYER_1
 10
33.8888
 20
-157.6675
  0
SEQEND
  0
POLYLINE
  8
LAYER_1
 40
0.1764
 41
0.1764
 62
3
 66
1
 10
0
 20
0
 30
0
  0
VERTEX
  8
LAYER_1
 10
24.8859
 20
-159.404
  0
VERTEX
  8
LAYER_1
 10
32.8893
 20
-159.3986
  0
SEQEND
  0
POLYLINE
  8
LAYER_1
 40
0.1764
 41
0.1764
 62
3
 66
1
 10
0
 20
0
 30
0
  0
VERTEX
  8
LAYER_1
 10
28.888
 20
-152.4721
  0
VERTEX
  8
LAYER_1
 10
32.8893
 20
-159.3986
  0
SEQEND
  0
POLYLINE
  8
LAYER_1
 40
0.1764
 41
0.1764
 62
3
 66
1
 10
0
 20
0
 30
0
  0
VERTEX
  8
LAYER_1
 10
27.8885
 20
-154.2032
  0
VERTEX
  8
LAYER_1
 10
29.8847
 20
-154.2016
  0
SEQEND
  0
POLYLINE
  8
LAYER_1
 40
0.1764
 41
0.1764
 62
3
 66
1
 10
0
 20
0
 30
0
  0
VERTEX
  8
LAYER_1
 10
26.8891
 20
-155.9344
  0
VERTEX
  8
LAYER_1
 10
30.8887
 20
-155.9354
  0
SEQEND
  0
POLYLINE
  8
LAYER_1
 40
0.1764
 41
0.1764
 62
3
 66
1
 10
0
 20
0
 30
0
  0
VERTEX
  8
LAYER_1
 10
25.8896
 20
-157.6655
  0
VERTEX
  8
LAYER_1
 10
31.8853
 20
-157.6649
  0
SEQEND
  0
ENDBLK
  0
BLOCK
  8
LAYER_1
  2
AIGNBL0102004E
 70
64
 10
0
 20
0
 30
0
  3
AIGNBL0102004E
  0
POLYLINE
  8
LAYER_1
 40
0.1764
 41
0.1764
 62
3
 66
1
 10
0
 20
0
 30
0
  0
VERTEX
  8
LAYER_1
 10
62.5141
 20
-137.8113
  0
VERTEX
  8
LAYER_1
 10
46.5142
 20
-137.8113
  0
VERTEX
  8
LAYER_1
 10
50.2664
 20
-131.3148
  0
SEQEND
  0
POLYLINE
  8
LAYER_1
 40
0.1764
 41
0.1764
 62
3
 66
1
 10
0
 20
0
 30
0
  0
VERTEX
  8
LAYER_1
 10
48.5131
 20
-137.8113
  0
VERTEX
  8
LAYER_1
 10
46.5142
 20
-137.8113
  0
SEQEND
  0
POLYLINE
  8
LAYER_1
 40
0.1764
 41
0.1764
 62
3
 66
1
 10
0
 20
0
 30
0
  0
VERTEX
  8
LAYER_1
 10
50.5121
 20
-137.8113
  0
VERTEX
  8
LAYER_1
 10
48.5131
 20
-137.8113
  0
SEQEND
  0
POLYLINE
  8
LAYER_1
 40
0.1764
 41
0.1764
 62
3
 66
1
 10
0
 20
0
 30
0
  0
VERTEX
  8
LAYER_1
 10
52.511
 20
-137.8113
  0
VERTEX
  8
LAYER_1
 10
50.5121
 20
-137.8113
  0
SEQEND
  0
POLYLINE
  8
LAYER_1
 40
0.1764
 41
0.1764
 62
3
 66
1
 10
0
 20
0
 30
0
  0
VERTEX
  8
LAYER_1
 10
54.5099
 20
-137.8113
  0
VERTEX
  8
LAYER_1
 10
52.511
 20
-137.8113
  0
SEQEND
  0
POLYLINE
  8
LAYER_1
 40
0.1764
 41
0.1764
 62
3
 66
1
 10
0
 20
0
 30
0
  0
VERTEX
  8
LAYER_1
 10
56.5088
 20
-137.8113
  0
VERTEX
  8
LAYER_1
 10
54.5099
 20
-137.8113
  0
SEQEND
  0
POLYLINE
  8
LAYER_1
 40
0.1764
 41
0.1764
 62
3
 66
1
 10
0
 20
0
 30
0
  0
VERTEX
  8
LAYER_1
 10
58.5078
 20
-137.8113
  0
VERTEX
  8
LAYER_1
 10
56.5088
 20
-137.8113
  0
SEQEND
  0
POLYLINE
  8
LAYER_1
 40
0.1764
 41
0.1764
 62
3
 66
1
 10
0
 20
0
 30
0
  0
VERTEX
  8
LAYER_1
 10
60.5067
 20
-137.8113
  0
VERTEX
  8
LAYER_1
 10
58.5078
 20
-137.8113
  0
SEQEND
  0
POLYLINE
  8
LAYER_1
 40
0.1764
 41
0.1764
 62
3
 66
1
 10
0
 20
0
 30
0
  0
VERTEX
  8
LAYER_1
 10
48.5131
 20
-137.8113
  0
VERTEX
  8
LAYER_1
 10
52.4771
 20
-130.9421
  0
SEQEND
  0
POLYLINE
  8
LAYER_1
 40
0.1764
 41
0.1764
 62
3
 66
1
 10
0
 20
0
 30
0
  0
VERTEX
  8
LAYER_1
 10
50.512
 20
-137.8113
  0
VERTEX
  8
LAYER_1
 10
54.349
 20
-131.1708
  0
SEQEND
  0
POLYLINE
  8
LAYER_1
 40
0.1764
 41
0.1764
 62
3
 66
1
 10
0
 20
0
 30
0
  0
VERTEX
  8
LAYER_1
 10
52.511
 20
-137.8113
  0
VERTEX
  8
LAYER_1
 10
56.3055
 20
-131.2385
  0
SEQEND
  0
POLYLINE
  8
LAYER_1
 40
0.1764
 41
0.1764
 62
3
 66
1
 10
0
 20
0
 30
0
  0
VERTEX
  8
LAYER_1
 10
58.5078
 20
-130.8828
  0
VERTEX
  8
LAYER_1
 10
50.512
 20
-130.8828
  0
SEQEND
  0
POLYLINE
  8
LAYER_1
 40
0.1764
 41
0.1764
 62
3
 66
1
 10
0
 20
0
 30
0
  0
VERTEX
  8
LAYER_1
 10
50.2664
 20
-131.3148
  0
VERTEX
  8
LAYER_1
 10
50.512
 20
-130.8828
  0
SEQEND
  0
POLYLINE
  8
LAYER_1
 40
0.1764
 41
0.1764
 62
3
 66
1
 10
0
 20
0
 30
0
  0
VERTEX
  8
LAYER_1
 10
54.349
 20
-131.1708
  0
VERTEX
  8
LAYER_1
 10
54.5099
 20
-130.8828
  0
SEQEND
  0
POLYLINE
  8
LAYER_1
 40
0.1764
 41
0.1764
 62
3
 66
1
 10
0
 20
0
 30
0
  0
VERTEX
  8
LAYER_1
 10
56.3055
 20
-131.2385
  0
VERTEX
  8
LAYER_1
 10
56.5088
 20
-130.8828
  0
SEQEND
  0
POLYLINE
  8
LAYER_1
 40
0.1764
 41
0.1764
 62
3
 66
1
 10
0
 20
0
 30
0
  0
VERTEX
  8
LAYER_1
 10
62.5141
 20
-137.8113
  0
VERTEX
  8
LAYER_1
 10
58.5077
 20
-130.8828
  0
SEQEND
  0
POLYLINE
  8
LAYER_1
 40
0.1764
 41
0.1764
 62
3
 66
1
 10
0
 20
0
 30
0
  0
VERTEX
  8
LAYER_1
 10
54.5099
 20
-137.8113
  0
VERTEX
  8
LAYER_1
 10
58.5077
 20
-130.8828
  0
SEQEND
  0
POLYLINE
  8
LAYER_1
 40
0.1764
 41
0.1764
 62
3
 66
1
 10
0
 20
0
 30
0
  0
VERTEX
  8
LAYER_1
 10
56.5088
 20
-137.8113
  0
VERTEX
  8
LAYER_1
 10
55.5093
 20
-136.0834
  0
SEQEND
  0
POLYLINE
  8
LAYER_1
 40
0.1764
 41
0.1764
 62
3
 66
1
 10
0
 20
0
 30
0
  0
VERTEX
  8
LAYER_1
 10
58.5077
 20
-137.8113
  0
VERTEX
  8
LAYER_1
 10
56.5088
 20
-134.347
  0
SEQEND
  0
POLYLINE
  8
LAYER_1
 40
0.1764
 41
0.1764
 62
3
 66
1
 10
0
 20
0
 30
0
  0
VERTEX
  8
LAYER_1
 10
60.5067
 20
-137.8113
  0
VERTEX
  8
LAYER_1
 10
57.5083
 20
-132.6192
  0
SEQEND
  0
ENDBLK
  0
BLOCK
  8
LAYER_1
  2
AIGNBL01020051
 70
64
 10
0
 20
0
 30
0
  3
AIGNBL01020051
  0
POLYLINE
  8
LAYER_1
 40
0.1764
 41
0.1764
 62
3
 66
1
 10
0
 20
0
 30
0
  0
VERTEX
  8
LAYER_1
 10
62.9383
 20
-138.4923
  0
VERTEX
  8
LAYER_1
 10
70.9383
 20
-152.3487
  0
VERTEX
  8
LAYER_1
 10
63.436
 20
-152.3474
  0
SEQEND
  0
POLYLINE
  8
LAYER_1
 40
0.1764
 41
0.1764
 62
3
 66
1
 10
0
 20
0
 30
0
  0
VERTEX
  8
LAYER_1
 10
69.9388
 20
-150.6176
  0
VERTEX
  8
LAYER_1
 10
70.9383
 20
-152.3487
  0
SEQEND
  0
POLYLINE
  8
LAYER_1
 40
0.1764
 41
0.1764
 62
3
 66
1
 10
0
 20
0
 30
0
  0
VERTEX
  8
LAYER_1
 10
68.9394
 20
-148.8864
  0
VERTEX
  8
LAYER_1
 10
69.9388
 20
-150.6176
  0
SEQEND
  0
POLYLINE
  8
LAYER_1
 40
0.1764
 41
0.1764
 62
3
 66
1
 10
0
 20
0
 30
0
  0
VERTEX
  8
LAYER_1
 10
67.9399
 20
-147.1553
  0
VERTEX
  8
LAYER_1
 10
68.9394
 20
-148.8864
  0
SEQEND
  0
POLYLINE
  8
LAYER_1
 40
0.1764
 41
0.1764
 62
3
 66
1
 10
0
 20
0
 30
0
  0
VERTEX
  8
LAYER_1
 10
66.9405
 20
-145.4242
  0
VERTEX
  8
LAYER_1
 10
67.9399
 20
-147.1553
  0
SEQEND
  0
POLYLINE
  8
LAYER_1
 40
0.1764
 41
0.1764
 62
3
 66
1
 10
0
 20
0
 30
0
  0
VERTEX
  8
LAYER_1
 10
65.941
 20
-143.6931
  0
VERTEX
  8
LAYER_1
 10
66.9405
 20
-145.4242
  0
SEQEND
  0
POLYLINE
  8
LAYER_1
 40
0.1764
 41
0.1764
 62
3
 66
1
 10
0
 20
0
 30
0
  0
VERTEX
  8
LAYER_1
 10
64.9415
 20
-141.9619
  0
VERTEX
  8
LAYER_1
 10
65.941
 20
-143.6931
  0
SEQEND
  0
POLYLINE
  8
LAYER_1
 40
0.1764
 41
0.1764
 62
3
 66
1
 10
0
 20
0
 30
0
  0
VERTEX
  8
LAYER_1
 10
63.9421
 20
-140.2308
  0
VERTEX
  8
LAYER_1
 10
64.9415
 20
-141.9619
  0
SEQEND
  0
POLYLINE
  8
LAYER_1
 40
0.1764
 41
0.1764
 62
3
 66
1
 10
0
 20
0
 30
0
  0
VERTEX
  8
LAYER_1
 10
69.9389
 20
-150.6176
  0
VERTEX
  8
LAYER_1
 10
62.008
 20
-150.6193
  0
SEQEND
  0
POLYLINE
  8
LAYER_1
 40
0.1764
 41
0.1764
 62
3
 66
1
 10
0
 20
0
 30
0
  0
VERTEX
  8
LAYER_1
 10
68.9394
 20
-148.8865
  0
VERTEX
  8
LAYER_1
 10
61.2701
 20
-148.8838
  0
SEQEND
  0
POLYLINE
  8
LAYER_1
 40
0.1764
 41
0.1764
 62
3
 66
1
 10
0
 20
0
 30
0
  0
VERTEX
  8
LAYER_1
 10
67.9399
 20
-147.1553
  0
VERTEX
  8
LAYER_1
 10
60.3505
 20
-147.1555
  0
SEQEND
  0
POLYLINE
  8
LAYER_1
 40
0.1764
 41
0.1764
 62
3
 66
1
 10
0
 20
0
 30
0
  0
VERTEX
  8
LAYER_1
 10
58.9413
 20
-145.4262
  0
VERTEX
  8
LAYER_1
 10
62.9391
 20
-152.3507
  0
SEQEND
  0
POLYLINE
  8
LAYER_1
 40
0.1764
 41
0.1764
 62
3
 66
1
 10
0
 20
0
 30
0
  0
VERTEX
  8
LAYER_1
 10
63.4361
 20
-152.3475
  0
VERTEX
  8
LAYER_1
 10
62.9391
 20
-152.3507
  0
SEQEND
  0
POLYLINE
  8
LAYER_1
 40
0.1764
 41
0.1764
 62
3
 66
1
 10
0
 20
0
 30
0
  0
VERTEX
  8
LAYER_1
 10
61.2701
 20
-148.8838
  0
VERTEX
  8
LAYER_1
 10
60.9402
 20
-148.8885
  0
SEQEND
  0
POLYLINE
  8
LAYER_1
 40
0.1764
 41
0.1764
 62
3
 66
1
 10
0
 20
0
 30
0
  0
VERTEX
  8
LAYER_1
 10
60.3505
 20
-147.1555
  0
VERTEX
  8
LAYER_1
 10
59.9407
 20
-147.1573
  0
SEQEND
  0
POLYLINE
  8
LAYER_1
 40
0.1764
 41
0.1764
 62
3
 66
1
 10
0
 20
0
 30
0
  0
VERTEX
  8
LAYER_1
 10
62.9384
 20
-138.4924
  0
VERTEX
  8
LAYER_1
 10
58.9413
 20
-145.4262
  0
SEQEND
  0
POLYLINE
  8
LAYER_1
 40
0.1764
 41
0.1764
 62
3
 66
1
 10
0
 20
0
 30
0
  0
VERTEX
  8
LAYER_1
 10
66.9405
 20
-145.4242
  0
VERTEX
  8
LAYER_1
 10
58.9413
 20
-145.4262
  0
SEQEND
  0
POLYLINE
  8
LAYER_1
 40
0.1764
 41
0.1764
 62
3
 66
1
 10
0
 20
0
 30
0
  0
VERTEX
  8
LAYER_1
 10
65.941
 20
-143.6931
  0
VERTEX
  8
LAYER_1
 10
64.9443
 20
-145.4226
  0
SEQEND
  0
POLYLINE
  8
LAYER_1
 40
0.1764
 41
0.1764
 62
3
 66
1
 10
0
 20
0
 30
0
  0
VERTEX
  8
LAYER_1
 10
64.9415
 20
-141.962
  0
VERTEX
  8
LAYER_1
 10
62.9409
 20
-145.4252
  0
SEQEND
  0
POLYLINE
  8
LAYER_1
 40
0.1764
 41
0.1764
 62
3
 66
1
 10
0
 20
0
 30
0
  0
VERTEX
  8
LAYER_1
 10
63.9421
 20
-140.2309
  0
VERTEX
  8
LAYER_1
 10
60.9447
 20
-145.4236
  0
SEQEND
  0
ENDBLK
  0
BLOCK
  8
LAYER_1
  2
AIGNBL01020054
 70
64
 10
0
 20
0
 30
0
  3
AIGNBL01020054
  0
POLYLINE
  8
LAYER_1
 40
0.1764
 41
0.1764
 62
3
 66
1
 10
0
 20
0
 30
0
  0
VERTEX
  8
LAYER_1
 10
63.3277
 20
-137.8721
  0
VERTEX
  8
LAYER_1
 10
71.3276
 20
-124.0158
  0
VERTEX
  8
LAYER_1
 10
75.0777
 20
-130.5136
  0
SEQEND
  0
POLYLINE
  8
LAYER_1
 40
0.1764
 41
0.1764
 62
3
 66
1
 10
0
 20
0
 30
0
  0
VERTEX
  8
LAYER_1
 10
70.3282
 20
-125.7469
  0
VERTEX
  8
LAYER_1
 10
71.3276
 20
-124.0158
  0
SEQEND
  0
POLYLINE
  8
LAYER_1
 40
0.1764
 41
0.1764
 62
3
 66
1
 10
0
 20
0
 30
0
  0
VERTEX
  8
LAYER_1
 10
69.3287
 20
-127.478
  0
VERTEX
  8
LAYER_1
 10
70.3282
 20
-125.7469
  0
SEQEND
  0
POLYLINE
  8
LAYER_1
 40
0.1764
 41
0.1764
 62
3
 66
1
 10
0
 20
0
 30
0
  0
VERTEX
  8
LAYER_1
 10
68.3292
 20
-129.2092
  0
VERTEX
  8
LAYER_1
 10
69.3287
 20
-127.478
  0
SEQEND
  0
POLYLINE
  8
LAYER_1
 40
0.1764
 41
0.1764
 62
3
 66
1
 10
0
 20
0
 30
0
  0
VERTEX
  8
LAYER_1
 10
67.3298
 20
-130.9403
  0
VERTEX
  8
LAYER_1
 10
68.3292
 20
-129.2092
  0
SEQEND
  0
POLYLINE
  8
LAYER_1
 40
0.1764
 41
0.1764
 62
3
 66
1
 10
0
 20
0
 30
0
  0
VERTEX
  8
LAYER_1
 10
66.3303
 20
-132.6714
  0
VERTEX
  8
LAYER_1
 10
67.3298
 20
-130.9403
  0
SEQEND
  0
POLYLINE
  8
LAYER_1
 40
0.1764
 41
0.1764
 62
3
 66
1
 10
0
 20
0
 30
0
  0
VERTEX
  8
LAYER_1
 10
65.3309
 20
-134.4025
  0
VERTEX
  8
LAYER_1
 10
66.3303
 20
-132.6714
  0
SEQEND
  0
POLYLINE
  8
LAYER_1
 40
0.1764
 41
0.1764
 62
3
 66
1
 10
0
 20
0
 30
0
  0
VERTEX
  8
LAYER_1
 10
64.3314
 20
-136.1337
  0
VERTEX
  8
LAYER_1
 10
65.3309
 20
-134.4025
  0
SEQEND
  0
POLYLINE
  8
LAYER_1
 40
0.1764
 41
0.1764
 62
3
 66
1
 10
0
 20
0
 30
0
  0
VERTEX
  8
LAYER_1
 10
70.3282
 20
-125.7469
  0
VERTEX
  8
LAYER_1
 10
74.2951
 20
-132.6144
  0
SEQEND
  0
POLYLINE
  8
LAYER_1
 40
0.1764
 41
0.1764
 62
3
 66
1
 10
0
 20
0
 30
0
  0
VERTEX
  8
LAYER_1
 10
69.3287
 20
-127.478
  0
VERTEX
  8
LAYER_1
 10
73.1611
 20
-134.1212
  0
SEQEND
  0
POLYLINE
  8
LAYER_1
 40
0.1764
 41
0.1764
 62
3
 66
1
 10
0
 20
0
 30
0
  0
VERTEX
  8
LAYER_1
 10
68.3293
 20
-129.2091
  0
VERTEX
  8
LAYER_1
 10
72.1242
 20
-135.7817
  0
SEQEND
  0
POLYLINE
  8
LAYER_1
 40
0.1764
 41
0.1764
 62
3
 66
1
 10
0
 20
0
 30
0
  0
VERTEX
  8
LAYER_1
 10
71.3311
 20
-137.8668
  0
VERTEX
  8
LAYER_1
 10
75.329
 20
-130.9423
  0
SEQEND
  0
POLYLINE
  8
LAYER_1
 40
0.1764
 41
0.1764
 62
3
 66
1
 10
0
 20
0
 30
0
  0
VERTEX
  8
LAYER_1
 10
75.0777
 20
-130.5136
  0
VERTEX
  8
LAYER_1
 10
75.329
 20
-130.9423
  0
SEQEND
  0
POLYLINE
  8
LAYER_1
 40
0.1764
 41
0.1764
 62
3
 66
1
 10
0
 20
0
 30
0
  0
VERTEX
  8
LAYER_1
 10
73.1611
 20
-134.1212
  0
VERTEX
  8
LAYER_1
 10
73.3301
 20
-134.4045
  0
SEQEND
  0
POLYLINE
  8
LAYER_1
 40
0.1764
 41
0.1764
 62
3
 66
1
 10
0
 20
0
 30
0
  0
VERTEX
  8
LAYER_1
 10
72.1242
 20
-135.7817
  0
VERTEX
  8
LAYER_1
 10
72.3306
 20
-136.1356
  0
SEQEND
  0
POLYLINE
  8
LAYER_1
 40
0.1764
 41
0.1764
 62
3
 66
1
 10
0
 20
0
 30
0
  0
VERTEX
  8
LAYER_1
 10
63.3277
 20
-137.8721
  0
VERTEX
  8
LAYER_1
 10
71.3311
 20
-137.8668
  0
SEQEND
  0
POLYLINE
  8
LAYER_1
 40
0.1764
 41
0.1764
 62
3
 66
1
 10
0
 20
0
 30
0
  0
VERTEX
  8
LAYER_1
 10
67.3298
 20
-130.9403
  0
VERTEX
  8
LAYER_1
 10
71.3311
 20
-137.8668
  0
SEQEND
  0
POLYLINE
  8
LAYER_1
 40
0.1764
 41
0.1764
 62
3
 66
1
 10
0
 20
0
 30
0
  0
VERTEX
  8
LAYER_1
 10
66.3303
 20
-132.6714
  0
VERTEX
  8
LAYER_1
 10
68.3265
 20
-132.6698
  0
SEQEND
  0
POLYLINE
  8
LAYER_1
 40
0.1764
 41
0.1764
 62
3
 66
1
 10
0
 20
0
 30
0
  0
VERTEX
  8
LAYER_1
 10
65.3309
 20
-134.4025
  0
VERTEX
  8
LAYER_1
 10
69.3305
 20
-134.4035
  0
SEQEND
  0
POLYLINE
  8
LAYER_1
 40
0.1764
 41
0.1764
 62
3
 66
1
 10
0
 20
0
 30
0
  0
VERTEX
  8
LAYER_1
 10
64.3314
 20
-136.1336
  0
VERTEX
  8
LAYER_1
 10
70.3271
 20
-136.133
  0
SEQEND
  0
ENDBLK
  0
BLOCK
  8
LAYER_1
  2
AIGNBL01020057
 70
64
 10
0
 20
0
 30
0
  3
AIGNBL01020057
  0
POLYLINE
  8
LAYER_1
 40
0.1764
 41
0.1764
 62
3
 66
1
 10
0
 20
0
 30
0
  0
VERTEX
  8
LAYER_1
 10
49.62
 20
-159.8712
  0
VERTEX
  8
LAYER_1
 10
33.62
 20
-159.8712
  0
VERTEX
  8
LAYER_1
 10
37.3723
 20
-153.3747
  0
SEQEND
  0
POLYLINE
  8
LAYER_1
 40
0.1764
 41
0.1764
 62
3
 66
1
 10
0
 20
0
 30
0
  0
VERTEX
  8
LAYER_1
 10
35.619
 20
-159.8712
  0
VERTEX
  8
LAYER_1
 10
33.62
 20
-159.8712
  0
SEQEND
  0
POLYLINE
  8
LAYER_1
 40
0.1764
 41
0.1764
 62
3
 66
1
 10
0
 20
0
 30
0
  0
VERTEX
  8
LAYER_1
 10
37.6179
 20
-159.8712
  0
VERTEX
  8
LAYER_1
 10
35.619
 20
-159.8712
  0
SEQEND
  0
POLYLINE
  8
LAYER_1
 40
0.1764
 41
0.1764
 62
3
 66
1
 10
0
 20
0
 30
0
  0
VERTEX
  8
LAYER_1
 10
39.6168
 20
-159.8712
  0
VERTEX
  8
LAYER_1
 10
37.6179
 20
-159.8712
  0
SEQEND
  0
POLYLINE
  8
LAYER_1
 40
0.1764
 41
0.1764
 62
3
 66
1
 10
0
 20
0
 30
0
  0
VERTEX
  8
LAYER_1
 10
41.6158
 20
-159.8712
  0
VERTEX
  8
LAYER_1
 10
39.6168
 20
-159.8712
  0
SEQEND
  0
POLYLINE
  8
LAYER_1
 40
0.1764
 41
0.1764
 62
3
 66
1
 10
0
 20
0
 30
0
  0
VERTEX
  8
LAYER_1
 10
43.6147
 20
-159.8712
  0
VERTEX
  8
LAYER_1
 10
41.6158
 20
-159.8712
  0
SEQEND
  0
POLYLINE
  8
LAYER_1
 40
0.1764
 41
0.1764
 62
3
 66
1
 10
0
 20
0
 30
0
  0
VERTEX
  8
LAYER_1
 10
45.6136
 20
-159.8712
  0
VERTEX
  8
LAYER_1
 10
43.6147
 20
-159.8712
  0
SEQEND
  0
POLYLINE
  8
LAYER_1
 40
0.1764
 41
0.1764
 62
3
 66
1
 10
0
 20
0
 30
0
  0
VERTEX
  8
LAYER_1
 10
47.6125
 20
-159.8712
  0
VERTEX
  8
LAYER_1
 10
45.6136
 20
-159.8712
  0
SEQEND
  0
POLYLINE
  8
LAYER_1
 40
0.1764
 41
0.1764
 62
3
 66
1
 10
0
 20
0
 30
0
  0
VERTEX
  8
LAYER_1
 10
35.6189
 20
-159.8712
  0
VERTEX
  8
LAYER_1
 10
39.5829
 20
-153.002
  0
SEQEND
  0
POLYLINE
  8
LAYER_1
 40
0.1764
 41
0.1764
 62
3
 66
1
 10
0
 20
0
 30
0
  0
VERTEX
  8
LAYER_1
 10
37.6179
 20
-159.8712
  0
VERTEX
  8
LAYER_1
 10
41.4548
 20
-153.2307
  0
SEQEND
  0
POLYLINE
  8
LAYER_1
 40
0.1764
 41
0.1764
 62
3
 66
1
 10
0
 20
0
 30
0
  0
VERTEX
  8
LAYER_1
 10
39.6168
 20
-159.8712
  0
VERTEX
  8
LAYER_1
 10
43.4114
 20
-153.2984
  0
SEQEND
  0
POLYLINE
  8
LAYER_1
 40
0.1764
 41
0.1764
 62
3
 66
1
 10
0
 20
0
 30
0
  0
VERTEX
  8
LAYER_1
 10
45.6136
 20
-152.9427
  0
VERTEX
  8
LAYER_1
 10
37.6179
 20
-152.9427
  0
SEQEND
  0
POLYLINE
  8
LAYER_1
 40
0.1764
 41
0.1764
 62
3
 66
1
 10
0
 20
0
 30
0
  0
VERTEX
  8
LAYER_1
 10
37.3722
 20
-153.3747
  0
VERTEX
  8
LAYER_1
 10
37.6179
 20
-152.9427
  0
SEQEND
  0
POLYLINE
  8
LAYER_1
 40
0.1764
 41
0.1764
 62
3
 66
1
 10
0
 20
0
 30
0
  0
VERTEX
  8
LAYER_1
 10
41.4548
 20
-153.2307
  0
VERTEX
  8
LAYER_1
 10
41.6157
 20
-152.9427
  0
SEQEND
  0
POLYLINE
  8
LAYER_1
 40
0.1764
 41
0.1764
 62
3
 66
1
 10
0
 20
0
 30
0
  0
VERTEX
  8
LAYER_1
 10
43.4114
 20
-153.2984
  0
VERTEX
  8
LAYER_1
 10
43.6147
 20
-152.9427
  0
SEQEND
  0
POLYLINE
  8
LAYER_1
 40
0.1764
 41
0.1764
 62
3
 66
1
 10
0
 20
0
 30
0
  0
VERTEX
  8
LAYER_1
 10
49.6199
 20
-159.8712
  0
VERTEX
  8
LAYER_1
 10
45.6136
 20
-152.9427
  0
SEQEND
  0
POLYLINE
  8
LAYER_1
 40
0.1764
 41
0.1764
 62
3
 66
1
 10
0
 20
0
 30
0
  0
VERTEX
  8
LAYER_1
 10
41.6157
 20
-159.8712
  0
VERTEX
  8
LAYER_1
 10
45.6136
 20
-152.9427
  0
SEQEND
  0
POLYLINE
  8
LAYER_1
 40
0.1764
 41
0.1764
 62
3
 66
1
 10
0
 20
0
 30
0
  0
VERTEX
  8
LAYER_1
 10
43.6146
 20
-159.8712
  0
VERTEX
  8
LAYER_1
 10
42.6152
 20
-158.1433
  0
SEQEND
  0
POLYLINE
  8
LAYER_1
 40
0.1764
 41
0.1764
 62
3
 66
1
 10
0
 20
0
 30
0
  0
VERTEX
  8
LAYER_1
 10
45.6136
 20
-159.8712
  0
VERTEX
  8
LAYER_1
 10
43.6146
 20
-156.4069
  0
SEQEND
  0
POLYLINE
  8
LAYER_1
 40
0.1764
 41
0.1764
 62
3
 66
1
 10
0
 20
0
 30
0
  0
VERTEX
  8
LAYER_1
 10
47.6125
 20
-159.8712
  0
VERTEX
  8
LAYER_1
 10
44.6141
 20
-154.679
  0
SEQEND
  0
ENDBLK
  0
BLOCK
  8
LAYER_1
  2
AIGNBL0102005A
 70
64
 10
0
 20
0
 30
0
  3
AIGNBL0102005A
  0
POLYLINE
  8
LAYER_1
 40
0.1764
 41
0.1764
 62
3
 66
1
 10
0
 20
0
 30
0
  0
VERTEX
  8
LAYER_1
 10
50.0442
 20
-160.5522
  0
VERTEX
  8
LAYER_1
 10
58.0442
 20
-174.4086
  0
VERTEX
  8
LAYER_1
 10
50.5419
 20
-174.4073
  0
SEQEND
  0
POLYLINE
  8
LAYER_1
 40
0.1764
 41
0.1764
 62
3
 66
1
 10
0
 20
0
 30
0
  0
VERTEX
  8
LAYER_1
 10
57.0447
 20
-172.6775
  0
VERTEX
  8
LAYER_1
 10
58.0442
 20
-174.4086
  0
SEQEND
  0
POLYLINE
  8
LAYER_1
 40
0.1764
 41
0.1764
 62
3
 66
1
 10
0
 20
0
 30
0
  0
VERTEX
  8
LAYER_1
 10
56.0452
 20
-170.9463
  0
VERTEX
  8
LAYER_1
 10
57.0447
 20
-172.6775
  0
SEQEND
  0
POLYLINE
  8
LAYER_1
 40
0.1764
 41
0.1764
 62
3
 66
1
 10
0
 20
0
 30
0
  0
VERTEX
  8
LAYER_1
 10
55.0458
 20
-169.2152
  0
VERTEX
  8
LAYER_1
 10
56.0452
 20
-170.9463
  0
SEQEND
  0
POLYLINE
  8
LAYER_1
 40
0.1764
 41
0.1764
 62
3
 66
1
 10
0
 20
0
 30
0
  0
VERTEX
  8
LAYER_1
 10
54.0463
 20
-167.4841
  0
VERTEX
  8
LAYER_1
 10
55.0458
 20
-169.2152
  0
SEQEND
  0
POLYLINE
  8
LAYER_1
 40
0.1764
 41
0.1764
 62
3
 66
1
 10
0
 20
0
 30
0
  0
VERTEX
  8
LAYER_1
 10
53.0468
 20
-165.753
  0
VERTEX
  8
LAYER_1
 10
54.0463
 20
-167.4841
  0
SEQEND
  0
POLYLINE
  8
LAYER_1
 40
0.1764
 41
0.1764
 62
3
 66
1
 10
0
 20
0
 30
0
  0
VERTEX
  8
LAYER_1
 10
52.0474
 20
-164.0218
  0
VERTEX
  8
LAYER_1
 10
53.0468
 20
-165.753
  0
SEQEND
  0
POLYLINE
  8
LAYER_1
 40
0.1764
 41
0.1764
 62
3
 66
1
 10
0
 20
0
 30
0
  0
VERTEX
  8
LAYER_1
 10
51.0479
 20
-162.2907
  0
VERTEX
  8
LAYER_1
 10
52.0474
 20
-164.0218
  0
SEQEND
  0
POLYLINE
  8
LAYER_1
 40
0.1764
 41
0.1764
 62
3
 66
1
 10
0
 20
0
 30
0
  0
VERTEX
  8
LAYER_1
 10
57.0447
 20
-172.6775
  0
VERTEX
  8
LAYER_1
 10
49.1138
 20
-172.6792
  0
SEQEND
  0
POLYLINE
  8
LAYER_1
 40
0.1764
 41
0.1764
 62
3
 66
1
 10
0
 20
0
 30
0
  0
VERTEX
  8
LAYER_1
 10
56.0452
 20
-170.9464
  0
VERTEX
  8
LAYER_1
 10
48.3759
 20
-170.9437
  0
SEQEND
  0
POLYLINE
  8
LAYER_1
 40
0.1764
 41
0.1764
 62
3
 66
1
 10
0
 20
0
 30
0
  0
VERTEX
  8
LAYER_1
 10
55.0458
 20
-169.2152
  0
VERTEX
  8
LAYER_1
 10
47.4563
 20
-169.2154
  0
SEQEND
  0
POLYLINE
  8
LAYER_1
 40
0.1764
 41
0.1764
 62
3
 66
1
 10
0
 20
0
 30
0
  0
VERTEX
  8
LAYER_1
 10
46.0471
 20
-167.4861
  0
VERTEX
  8
LAYER_1
 10
50.045
 20
-174.4106
  0
SEQEND
  0
POLYLINE
  8
LAYER_1
 40
0.1764
 41
0.1764
 62
3
 66
1
 10
0
 20
0
 30
0
  0
VERTEX
  8
LAYER_1
 10
50.5419
 20
-174.4074
  0
VERTEX
  8
LAYER_1
 10
50.045
 20
-174.4106
  0
SEQEND
  0
POLYLINE
  8
LAYER_1
 40
0.1764
 41
0.1764
 62
3
 66
1
 10
0
 20
0
 30
0
  0
VERTEX
  8
LAYER_1
 10
48.3759
 20
-170.9437
  0
VERTEX
  8
LAYER_1
 10
48.046
 20
-170.9484
  0
SEQEND
  0
POLYLINE
  8
LAYER_1
 40
0.1764
 41
0.1764
 62
3
 66
1
 10
0
 20
0
 30
0
  0
VERTEX
  8
LAYER_1
 10
47.4563
 20
-169.2154
  0
VERTEX
  8
LAYER_1
 10
47.0466
 20
-169.2172
  0
SEQEND
  0
POLYLINE
  8
LAYER_1
 40
0.1764
 41
0.1764
 62
3
 66
1
 10
0
 20
0
 30
0
  0
VERTEX
  8
LAYER_1
 10
50.0442
 20
-160.5523
  0
VERTEX
  8
LAYER_1
 10
46.0471
 20
-167.4861
  0
SEQEND
  0
POLYLINE
  8
LAYER_1
 40
0.1764
 41
0.1764
 62
3
 66
1
 10
0
 20
0
 30
0
  0
VERTEX
  8
LAYER_1
 10
54.0463
 20
-167.4841
  0
VERTEX
  8
LAYER_1
 10
46.0471
 20
-167.4861
  0
SEQEND
  0
POLYLINE
  8
LAYER_1
 40
0.1764
 41
0.1764
 62
3
 66
1
 10
0
 20
0
 30
0
  0
VERTEX
  8
LAYER_1
 10
53.0468
 20
-165.753
  0
VERTEX
  8
LAYER_1
 10
52.0502
 20
-167.4825
  0
SEQEND
  0
POLYLINE
  8
LAYER_1
 40
0.1764
 41
0.1764
 62
3
 66
1
 10
0
 20
0
 30
0
  0
VERTEX
  8
LAYER_1
 10
52.0474
 20
-164.0219
  0
VERTEX
  8
LAYER_1
 10
50.0467
 20
-167.4851
  0
SEQEND
  0
POLYLINE
  8
LAYER_1
 40
0.1764
 41
0.1764
 62
3
 66
1
 10
0
 20
0
 30
0
  0
VERTEX
  8
LAYER_1
 10
51.0479
 20
-162.2907
  0
VERTEX
  8
LAYER_1
 10
48.0506
 20
-167.4835
  0
SEQEND
  0
ENDBLK
  0
BLOCK
  8
LAYER_1
  2
AIGNBL0102005D
 70
64
 10
0
 20
0
 30
0
  3
AIGNBL0102005D
  0
POLYLINE
  8
LAYER_1
 40
0.1764
 41
0.1764
 62
3
 66
1
 10
0
 20
0
 30
0
  0
VERTEX
  8
LAYER_1
 10
50.4335
 20
-159.932
  0
VERTEX
  8
LAYER_1
 10
58.4335
 20
-146.0757
  0
VERTEX
  8
LAYER_1
 10
62.1835
 20
-152.5735
  0
SEQEND
  0
POLYLINE
  8
LAYER_1
 40
0.1764
 41
0.1764
 62
3
 66
1
 10
0
 20
0
 30
0
  0
VERTEX
  8
LAYER_1
 10
57.434
 20
-147.8068
  0
VERTEX
  8
LAYER_1
 10
58.4335
 20
-146.0757
  0
SEQEND
  0
POLYLINE
  8
LAYER_1
 40
0.1764
 41
0.1764
 62
3
 66
1
 10
0
 20
0
 30
0
  0
VERTEX
  8
LAYER_1
 10
56.4346
 20
-149.5379
  0
VERTEX
  8
LAYER_1
 10
57.434
 20
-147.8068
  0
SEQEND
  0
POLYLINE
  8
LAYER_1
 40
0.1764
 41
0.1764
 62
3
 66
1
 10
0
 20
0
 30
0
  0
VERTEX
  8
LAYER_1
 10
55.4351
 20
-151.2691
  0
VERTEX
  8
LAYER_1
 10
56.4346
 20
-149.5379
  0
SEQEND
  0
POLYLINE
  8
LAYER_1
 40
0.1764
 41
0.1764
 62
3
 66
1
 10
0
 20
0
 30
0
  0
VERTEX
  8
LAYER_1
 10
54.4356
 20
-153.0002
  0
VERTEX
  8
LAYER_1
 10
55.4351
 20
-151.2691
  0
SEQEND
  0
POLYLINE
  8
LAYER_1
 40
0.1764
 41
0.1764
 62
3
 66
1
 10
0
 20
0
 30
0
  0
VERTEX
  8
LAYER_1
 10
53.4362
 20
-154.7313
  0
VERTEX
  8
LAYER_1
 10
54.4356
 20
-153.0002
  0
SEQEND
  0
POLYLINE
  8
LAYER_1
 40
0.1764
 41
0.1764
 62
3
 66
1
 10
0
 20
0
 30
0
  0
VERTEX
  8
LAYER_1
 10
52.4367
 20
-156.4624
  0
VERTEX
  8
LAYER_1
 10
53.4362
 20
-154.7313
  0
SEQEND
  0
POLYLINE
  8
LAYER_1
 40
0.1764
 41
0.1764
 62
3
 66
1
 10
0
 20
0
 30
0
  0
VERTEX
  8
LAYER_1
 10
51.4372
 20
-158.1936
  0
VERTEX
  8
LAYER_1
 10
52.4367
 20
-156.4624
  0
SEQEND
  0
POLYLINE
  8
LAYER_1
 40
0.1764
 41
0.1764
 62
3
 66
1
 10
0
 20
0
 30
0
  0
VERTEX
  8
LAYER_1
 10
57.434
 20
-147.8068
  0
VERTEX
  8
LAYER_1
 10
61.4009
 20
-154.6743
  0
SEQEND
  0
POLYLINE
  8
LAYER_1
 40
0.1764
 41
0.1764
 62
3
 66
1
 10
0
 20
0
 30
0
  0
VERTEX
  8
LAYER_1
 10
56.4346
 20
-149.5379
  0
VERTEX
  8
LAYER_1
 10
60.267
 20
-156.1811
  0
SEQEND
  0
POLYLINE
  8
LAYER_1
 40
0.1764
 41
0.1764
 62
3
 66
1
 10
0
 20
0
 30
0
  0
VERTEX
  8
LAYER_1
 10
55.4351
 20
-151.269
  0
VERTEX
  8
LAYER_1
 10
59.23
 20
-157.8416
  0
SEQEND
  0
POLYLINE
  8
LAYER_1
 40
0.1764
 41
0.1764
 62
3
 66
1
 10
0
 20
0
 30
0
  0
VERTEX
  8
LAYER_1
 10
58.437
 20
-159.9267
  0
VERTEX
  8
LAYER_1
 10
62.4348
 20
-153.0022
  0
SEQEND
  0
POLYLINE
  8
LAYER_1
 40
0.1764
 41
0.1764
 62
3
 66
1
 10
0
 20
0
 30
0
  0
VERTEX
  8
LAYER_1
 10
62.1835
 20
-152.5735
  0
VERTEX
  8
LAYER_1
 10
62.4348
 20
-153.0022
  0
SEQEND
  0
POLYLINE
  8
LAYER_1
 40
0.1764
 41
0.1764
 62
3
 66
1
 10
0
 20
0
 30
0
  0
VERTEX
  8
LAYER_1
 10
60.267
 20
-156.1811
  0
VERTEX
  8
LAYER_1
 10
60.4359
 20
-156.4644
  0
SEQEND
  0
POLYLINE
  8
LAYER_1
 40
0.1764
 41
0.1764
 62
3
 66
1
 10
0
 20
0
 30
0
  0
VERTEX
  8
LAYER_1
 10
59.23
 20
-157.8416
  0
VERTEX
  8
LAYER_1
 10
59.4364
 20
-158.1955
  0
SEQEND
  0
POLYLINE
  8
LAYER_1
 40
0.1764
 41
0.1764
 62
3
 66
1
 10
0
 20
0
 30
0
  0
VERTEX
  8
LAYER_1
 10
50.4335
 20
-159.932
  0
VERTEX
  8
LAYER_1
 10
58.437
 20
-159.9267
  0
SEQEND
  0
POLYLINE
  8
LAYER_1
 40
0.1764
 41
0.1764
 62
3
 66
1
 10
0
 20
0
 30
0
  0
VERTEX
  8
LAYER_1
 10
54.4356
 20
-153.0002
  0
VERTEX
  8
LAYER_1
 10
58.437
 20
-159.9267
  0
SEQEND
  0
POLYLINE
  8
LAYER_1
 40
0.1764
 41
0.1764
 62
3
 66
1
 10
0
 20
0
 30
0
  0
VERTEX
  8
LAYER_1
 10
53.4362
 20
-154.7313
  0
VERTEX
  8
LAYER_1
 10
55.4323
 20
-154.7297
  0
SEQEND
  0
POLYLINE
  8
LAYER_1
 40
0.1764
 41
0.1764
 62
3
 66
1
 10
0
 20
0
 30
0
  0
VERTEX
  8
LAYER_1
 10
52.4367
 20
-156.4624
  0
VERTEX
  8
LAYER_1
 10
56.4363
 20
-156.4634
  0
SEQEND
  0
POLYLINE
  8
LAYER_1
 40
0.1764
 41
0.1764
 62
3
 66
1
 10
0
 20
0
 30
0
  0
VERTEX
  8
LAYER_1
 10
51.4372
 20
-158.1935
  0
VERTEX
  8
LAYER_1
 10
57.433
 20
-158.1929
  0
SEQEND
  0
ENDBLK
  0
BLOCK
  8
LAYER_1
  2
AIGNBL01020060
 70
64
 10
0
 20
0
 30
0
  3
AIGNBL01020060
  0
POLYLINE
  8
LAYER_1
 40
0.1764
 41
0.1764
 62
3
 66
1
 10
0
 20
0
 30
0
  0
VERTEX
  8
LAYER_1
 10
-1.6969
 20
-159.2132
  0
VERTEX
  8
LAYER_1
 10
-17.6969
 20
-159.2132
  0
VERTEX
  8
LAYER_1
 10
-13.9447
 20
-152.7167
  0
SEQEND
  0
POLYLINE
  8
LAYER_1
 40
0.1764
 41
0.1764
 62
3
 66
1
 10
0
 20
0
 30
0
  0
VERTEX
  8
LAYER_1
 10
-15.6979
 20
-159.2132
  0
VERTEX
  8
LAYER_1
 10
-17.6969
 20
-159.2132
  0
SEQEND
  0
POLYLINE
  8
LAYER_1
 40
0.1764
 41
0.1764
 62
3
 66
1
 10
0
 20
0
 30
0
  0
VERTEX
  8
LAYER_1
 10
-13.699
 20
-159.2132
  0
VERTEX
  8
LAYER_1
 10
-15.6979
 20
-159.2132
  0
SEQEND
  0
POLYLINE
  8
LAYER_1
 40
0.1764
 41
0.1764
 62
3
 66
1
 10
0
 20
0
 30
0
  0
VERTEX
  8
LAYER_1
 10
-11.7001
 20
-159.2132
  0
VERTEX
  8
LAYER_1
 10
-13.699
 20
-159.2132
  0
SEQEND
  0
POLYLINE
  8
LAYER_1
 40
0.1764
 41
0.1764
 62
3
 66
1
 10
0
 20
0
 30
0
  0
VERTEX
  8
LAYER_1
 10
-9.7012
 20
-159.2132
  0
VERTEX
  8
LAYER_1
 10
-11.7001
 20
-159.2132
  0
SEQEND
  0
POLYLINE
  8
LAYER_1
 40
0.1764
 41
0.1764
 62
3
 66
1
 10
0
 20
0
 30
0
  0
VERTEX
  8
LAYER_1
 10
-7.7022
 20
-159.2132
  0
VERTEX
  8
LAYER_1
 10
-9.7012
 20
-159.2132
  0
SEQEND
  0
POLYLINE
  8
LAYER_1
 40
0.1764
 41
0.1764
 62
3
 66
1
 10
0
 20
0
 30
0
  0
VERTEX
  8
LAYER_1
 10
-5.7033
 20
-159.2132
  0
VERTEX
  8
LAYER_1
 10
-7.7022
 20
-159.2132
  0
SEQEND
  0
POLYLINE
  8
LAYER_1
 40
0.1764
 41
0.1764
 62
3
 66
1
 10
0
 20
0
 30
0
  0
VERTEX
  8
LAYER_1
 10
-3.7044
 20
-159.2132
  0
VERTEX
  8
LAYER_1
 10
-5.7033
 20
-159.2132
  0
SEQEND
  0
POLYLINE
  8
LAYER_1
 40
0.1764
 41
0.1764
 62
3
 66
1
 10
0
 20
0
 30
0
  0
VERTEX
  8
LAYER_1
 10
-15.698
 20
-159.2132
  0
VERTEX
  8
LAYER_1
 10
-11.734
 20
-152.344
  0
SEQEND
  0
POLYLINE
  8
LAYER_1
 40
0.1764
 41
0.1764
 62
3
 66
1
 10
0
 20
0
 30
0
  0
VERTEX
  8
LAYER_1
 10
-13.699
 20
-159.2132
  0
VERTEX
  8
LAYER_1
 10
-9.8621
 20
-152.5727
  0
SEQEND
  0
POLYLINE
  8
LAYER_1
 40
0.1764
 41
0.1764
 62
3
 66
1
 10
0
 20
0
 30
0
  0
VERTEX
  8
LAYER_1
 10
-11.7001
 20
-159.2132
  0
VERTEX
  8
LAYER_1
 10
-7.9055
 20
-152.6404
  0
SEQEND
  0
POLYLINE
  8
LAYER_1
 40
0.1764
 41
0.1764
 62
3
 66
1
 10
0
 20
0
 30
0
  0
VERTEX
  8
LAYER_1
 10
-5.7033
 20
-152.2847
  0
VERTEX
  8
LAYER_1
 10
-13.6991
 20
-152.2847
  0
SEQEND
  0
POLYLINE
  8
LAYER_1
 40
0.1764
 41
0.1764
 62
3
 66
1
 10
0
 20
0
 30
0
  0
VERTEX
  8
LAYER_1
 10
-13.9447
 20
-152.7167
  0
VERTEX
  8
LAYER_1
 10
-13.6991
 20
-152.2847
  0
SEQEND
  0
POLYLINE
  8
LAYER_1
 40
0.1764
 41
0.1764
 62
3
 66
1
 10
0
 20
0
 30
0
  0
VERTEX
  8
LAYER_1
 10
-9.8621
 20
-152.5727
  0
VERTEX
  8
LAYER_1
 10
-9.7012
 20
-152.2847
  0
SEQEND
  0
POLYLINE
  8
LAYER_1
 40
0.1764
 41
0.1764
 62
3
 66
1
 10
0
 20
0
 30
0
  0
VERTEX
  8
LAYER_1
 10
-7.9055
 20
-152.6404
  0
VERTEX
  8
LAYER_1
 10
-7.7023
 20
-152.2847
  0
SEQEND
  0
POLYLINE
  8
LAYER_1
 40
0.1764
 41
0.1764
 62
3
 66
1
 10
0
 20
0
 30
0
  0
VERTEX
  8
LAYER_1
 10
-1.697
 20
-159.2132
  0
VERTEX
  8
LAYER_1
 10
-5.7033
 20
-152.2847
  0
SEQEND
  0
POLYLINE
  8
LAYER_1
 40
0.1764
 41
0.1764
 62
3
 66
1
 10
0
 20
0
 30
0
  0
VERTEX
  8
LAYER_1
 10
-9.7012
 20
-159.2132
  0
VERTEX
  8
LAYER_1
 10
-5.7033
 20
-152.2847
  0
SEQEND
  0
POLYLINE
  8
LAYER_1
 40
0.1764
 41
0.1764
 62
3
 66
1
 10
0
 20
0
 30
0
  0
VERTEX
  8
LAYER_1
 10
-7.7023
 20
-159.2132
  0
VERTEX
  8
LAYER_1
 10
-8.7017
 20
-157.4853
  0
SEQEND
  0
POLYLINE
  8
LAYER_1
 40
0.1764
 41
0.1764
 62
3
 66
1
 10
0
 20
0
 30
0
  0
VERTEX
  8
LAYER_1
 10
-5.7033
 20
-159.2132
  0
VERTEX
  8
LAYER_1
 10
-7.7023
 20
-155.749
  0
SEQEND
  0
POLYLINE
  8
LAYER_1
 40
0.1764
 41
0.1764
 62
3
 66
1
 10
0
 20
0
 30
0
  0
VERTEX
  8
LAYER_1
 10
-3.7044
 20
-159.2132
  0
VERTEX
  8
LAYER_1
 10
-6.7028
 20
-154.0211
  0
SEQEND
  0
ENDBLK
  0
BLOCK
  8
LAYER_1
  2
AIGNBL01020063
 70
64
 10
0
 20
0
 30
0
  3
AIGNBL01020063
  0
POLYLINE
  8
LAYER_1
 40
0.1764
 41
0.1764
 62
3
 66
1
 10
0
 20
0
 30
0
  0
VERTEX
  8
LAYER_1
 10
-1.2727
 20
-159.8943
  0
VERTEX
  8
LAYER_1
 10
6.7272
 20
-173.7506
  0
VERTEX
  8
LAYER_1
 10
-0.775
 20
-173.7493
  0
SEQEND
  0
POLYLINE
  8
LAYER_1
 40
0.1764
 41
0.1764
 62
3
 66
1
 10
0
 20
0
 30
0
  0
VERTEX
  8
LAYER_1
 10
5.7278
 20
-172.0195
  0
VERTEX
  8
LAYER_1
 10
6.7272
 20
-173.7506
  0
SEQEND
  0
POLYLINE
  8
LAYER_1
 40
0.1764
 41
0.1764
 62
3
 66
1
 10
0
 20
0
 30
0
  0
VERTEX
  8
LAYER_1
 10
4.7283
 20
-170.2884
  0
VERTEX
  8
LAYER_1
 10
5.7278
 20
-172.0195
  0
SEQEND
  0
POLYLINE
  8
LAYER_1
 40
0.1764
 41
0.1764
 62
3
 66
1
 10
0
 20
0
 30
0
  0
VERTEX
  8
LAYER_1
 10
3.7288
 20
-168.5572
  0
VERTEX
  8
LAYER_1
 10
4.7283
 20
-170.2884
  0
SEQEND
  0
POLYLINE
  8
LAYER_1
 40
0.1764
 41
0.1764
 62
3
 66
1
 10
0
 20
0
 30
0
  0
VERTEX
  8
LAYER_1
 10
2.7294
 20
-166.8261
  0
VERTEX
  8
LAYER_1
 10
3.7288
 20
-168.5572
  0
SEQEND
  0
POLYLINE
  8
LAYER_1
 40
0.1764
 41
0.1764
 62
3
 66
1
 10
0
 20
0
 30
0
  0
VERTEX
  8
LAYER_1
 10
1.7299
 20
-165.095
  0
VERTEX
  8
LAYER_1
 10
2.7294
 20
-166.8261
  0
SEQEND
  0
POLYLINE
  8
LAYER_1
 40
0.1764
 41
0.1764
 62
3
 66
1
 10
0
 20
0
 30
0
  0
VERTEX
  8
LAYER_1
 10
0.7304
 20
-163.3639
  0
VERTEX
  8
LAYER_1
 10
1.7299
 20
-165.095
  0
SEQEND
  0
POLYLINE
  8
LAYER_1
 40
0.1764
 41
0.1764
 62
3
 66
1
 10
0
 20
0
 30
0
  0
VERTEX
  8
LAYER_1
 10
-0.269
 20
-161.6327
  0
VERTEX
  8
LAYER_1
 10
0.7304
 20
-163.3639
  0
SEQEND
  0
POLYLINE
  8
LAYER_1
 40
0.1764
 41
0.1764
 62
3
 66
1
 10
0
 20
0
 30
0
  0
VERTEX
  8
LAYER_1
 10
5.7278
 20
-172.0195
  0
VERTEX
  8
LAYER_1
 10
-2.2031
 20
-172.0212
  0
SEQEND
  0
POLYLINE
  8
LAYER_1
 40
0.1764
 41
0.1764
 62
3
 66
1
 10
0
 20
0
 30
0
  0
VERTEX
  8
LAYER_1
 10
4.7283
 20
-170.2884
  0
VERTEX
  8
LAYER_1
 10
-2.941
 20
-170.2858
  0
SEQEND
  0
POLYLINE
  8
LAYER_1
 40
0.1764
 41
0.1764
 62
3
 66
1
 10
0
 20
0
 30
0
  0
VERTEX
  8
LAYER_1
 10
3.7289
 20
-168.5572
  0
VERTEX
  8
LAYER_1
 10
-3.8606
 20
-168.5574
  0
SEQEND
  0
POLYLINE
  8
LAYER_1
 40
0.1764
 41
0.1764
 62
3
 66
1
 10
0
 20
0
 30
0
  0
VERTEX
  8
LAYER_1
 10
-5.2698
 20
-166.8281
  0
VERTEX
  8
LAYER_1
 10
-1.2719
 20
-173.7526
  0
SEQEND
  0
POLYLINE
  8
LAYER_1
 40
0.1764
 41
0.1764
 62
3
 66
1
 10
0
 20
0
 30
0
  0
VERTEX
  8
LAYER_1
 10
-0.775
 20
-173.7494
  0
VERTEX
  8
LAYER_1
 10
-1.2719
 20
-173.7526
  0
SEQEND
  0
POLYLINE
  8
LAYER_1
 40
0.1764
 41
0.1764
 62
3
 66
1
 10
0
 20
0
 30
0
  0
VERTEX
  8
LAYER_1
 10
-2.941
 20
-170.2858
  0
VERTEX
  8
LAYER_1
 10
-3.2709
 20
-170.2904
  0
SEQEND
  0
POLYLINE
  8
LAYER_1
 40
0.1764
 41
0.1764
 62
3
 66
1
 10
0
 20
0
 30
0
  0
VERTEX
  8
LAYER_1
 10
-3.8606
 20
-168.5574
  0
VERTEX
  8
LAYER_1
 10
-4.2703
 20
-168.5593
  0
SEQEND
  0
POLYLINE
  8
LAYER_1
 40
0.1764
 41
0.1764
 62
3
 66
1
 10
0
 20
0
 30
0
  0
VERTEX
  8
LAYER_1
 10
-1.2727
 20
-159.8943
  0
VERTEX
  8
LAYER_1
 10
-5.2698
 20
-166.8281
  0
SEQEND
  0
POLYLINE
  8
LAYER_1
 40
0.1764
 41
0.1764
 62
3
 66
1
 10
0
 20
0
 30
0
  0
VERTEX
  8
LAYER_1
 10
2.7294
 20
-166.8261
  0
VERTEX
  8
LAYER_1
 10
-5.2698
 20
-166.8281
  0
SEQEND
  0
POLYLINE
  8
LAYER_1
 40
0.1764
 41
0.1764
 62
3
 66
1
 10
0
 20
0
 30
0
  0
VERTEX
  8
LAYER_1
 10
1.7299
 20
-165.095
  0
VERTEX
  8
LAYER_1
 10
0.7333
 20
-166.8245
  0
SEQEND
  0
POLYLINE
  8
LAYER_1
 40
0.1764
 41
0.1764
 62
3
 66
1
 10
0
 20
0
 30
0
  0
VERTEX
  8
LAYER_1
 10
0.7305
 20
-163.3639
  0
VERTEX
  8
LAYER_1
 10
-1.2702
 20
-166.8271
  0
SEQEND
  0
POLYLINE
  8
LAYER_1
 40
0.1764
 41
0.1764
 62
3
 66
1
 10
0
 20
0
 30
0
  0
VERTEX
  8
LAYER_1
 10
-0.269
 20
-161.6328
  0
VERTEX
  8
LAYER_1
 10
-3.2663
 20
-166.8255
  0
SEQEND
  0
ENDBLK
  0
BLOCK
  8
LAYER_1
  2
AIGNBL01020066
 70
64
 10
0
 20
0
 30
0
  3
AIGNBL01020066
  0
POLYLINE
  8
LAYER_1
 40
0.1764
 41
0.1764
 62
3
 66
1
 10
0
 20
0
 30
0
  0
VERTEX
  8
LAYER_1
 10
-0.8834
 20
-159.2741
  0
VERTEX
  8
LAYER_1
 10
7.1166
 20
-145.4177
  0
VERTEX
  8
LAYER_1
 10
10.8666
 20
-151.9155
  0
SEQEND
  0
POLYLINE
  8
LAYER_1
 40
0.1764
 41
0.1764
 62
3
 66
1
 10
0
 20
0
 30
0
  0
VERTEX
  8
LAYER_1
 10
6.1171
 20
-147.1488
  0
VERTEX
  8
LAYER_1
 10
7.1166
 20
-145.4177
  0
SEQEND
  0
POLYLINE
  8
LAYER_1
 40
0.1764
 41
0.1764
 62
3
 66
1
 10
0
 20
0
 30
0
  0
VERTEX
  8
LAYER_1
 10
5.1176
 20
-148.88
  0
VERTEX
  8
LAYER_1
 10
6.1171
 20
-147.1488
  0
SEQEND
  0
POLYLINE
  8
LAYER_1
 40
0.1764
 41
0.1764
 62
3
 66
1
 10
0
 20
0
 30
0
  0
VERTEX
  8
LAYER_1
 10
4.1182
 20
-150.6111
  0
VERTEX
  8
LAYER_1
 10
5.1176
 20
-148.88
  0
SEQEND
  0
POLYLINE
  8
LAYER_1
 40
0.1764
 41
0.1764
 62
3
 66
1
 10
0
 20
0
 30
0
  0
VERTEX
  8
LAYER_1
 10
3.1187
 20
-152.3422
  0
VERTEX
  8
LAYER_1
 10
4.1182
 20
-150.6111
  0
SEQEND
  0
POLYLINE
  8
LAYER_1
 40
0.1764
 41
0.1764
 62
3
 66
1
 10
0
 20
0
 30
0
  0
VERTEX
  8
LAYER_1
 10
2.1192
 20
-154.0733
  0
VERTEX
  8
LAYER_1
 10
3.1187
 20
-152.3422
  0
SEQEND
  0
POLYLINE
  8
LAYER_1
 40
0.1764
 41
0.1764
 62
3
 66
1
 10
0
 20
0
 30
0
  0
VERTEX
  8
LAYER_1
 10
1.1198
 20
-155.8045
  0
VERTEX
  8
LAYER_1
 10
2.1192
 20
-154.0733
  0
SEQEND
  0
POLYLINE
  8
LAYER_1
 40
0.1764
 41
0.1764
 62
3
 66
1
 10
0
 20
0
 30
0
  0
VERTEX
  8
LAYER_1
 10
0.1203
 20
-157.5356
  0
VERTEX
  8
LAYER_1
 10
1.1198
 20
-155.8045
  0
SEQEND
  0
POLYLINE
  8
LAYER_1
 40
0.1764
 41
0.1764
 62
3
 66
1
 10
0
 20
0
 30
0
  0
VERTEX
  8
LAYER_1
 10
6.1171
 20
-147.1488
  0
VERTEX
  8
LAYER_1
 10
10.084
 20
-154.0163
  0
SEQEND
  0
POLYLINE
  8
LAYER_1
 40
0.1764
 41
0.1764
 62
3
 66
1
 10
0
 20
0
 30
0
  0
VERTEX
  8
LAYER_1
 10
5.1176
 20
-148.8799
  0
VERTEX
  8
LAYER_1
 10
8.95
 20
-155.5231
  0
SEQEND
  0
POLYLINE
  8
LAYER_1
 40
0.1764
 41
0.1764
 62
3
 66
1
 10
0
 20
0
 30
0
  0
VERTEX
  8
LAYER_1
 10
4.1182
 20
-150.6111
  0
VERTEX
  8
LAYER_1
 10
7.9131
 20
-157.1836
  0
SEQEND
  0
POLYLINE
  8
LAYER_1
 40
0.1764
 41
0.1764
 62
3
 66
1
 10
0
 20
0
 30
0
  0
VERTEX
  8
LAYER_1
 10
7.12
 20
-159.2687
  0
VERTEX
  8
LAYER_1
 10
11.1179
 20
-152.3442
  0
SEQEND
  0
POLYLINE
  8
LAYER_1
 40
0.1764
 41
0.1764
 62
3
 66
1
 10
0
 20
0
 30
0
  0
VERTEX
  8
LAYER_1
 10
10.8666
 20
-151.9155
  0
VERTEX
  8
LAYER_1
 10
11.1179
 20
-152.3442
  0
SEQEND
  0
POLYLINE
  8
LAYER_1
 40
0.1764
 41
0.1764
 62
3
 66
1
 10
0
 20
0
 30
0
  0
VERTEX
  8
LAYER_1
 10
8.9501
 20
-155.5231
  0
VERTEX
  8
LAYER_1
 10
9.119
 20
-155.8064
  0
SEQEND
  0
POLYLINE
  8
LAYER_1
 40
0.1764
 41
0.1764
 62
3
 66
1
 10
0
 20
0
 30
0
  0
VERTEX
  8
LAYER_1
 10
7.9131
 20
-157.1836
  0
VERTEX
  8
LAYER_1
 10
8.1195
 20
-157.5376
  0
SEQEND
  0
POLYLINE
  8
LAYER_1
 40
0.1764
 41
0.1764
 62
3
 66
1
 10
0
 20
0
 30
0
  0
VERTEX
  8
LAYER_1
 10
-0.8834
 20
-159.274
  0
VERTEX
  8
LAYER_1
 10
7.1201
 20
-159.2687
  0
SEQEND
  0
POLYLINE
  8
LAYER_1
 40
0.1764
 41
0.1764
 62
3
 66
1
 10
0
 20
0
 30
0
  0
VERTEX
  8
LAYER_1
 10
3.1187
 20
-152.3422
  0
VERTEX
  8
LAYER_1
 10
7.1201
 20
-159.2687
  0
SEQEND
  0
POLYLINE
  8
LAYER_1
 40
0.1764
 41
0.1764
 62
3
 66
1
 10
0
 20
0
 30
0
  0
VERTEX
  8
LAYER_1
 10
2.1193
 20
-154.0733
  0
VERTEX
  8
LAYER_1
 10
4.1154
 20
-154.0717
  0
SEQEND
  0
POLYLINE
  8
LAYER_1
 40
0.1764
 41
0.1764
 62
3
 66
1
 10
0
 20
0
 30
0
  0
VERTEX
  8
LAYER_1
 10
1.1198
 20
-155.8044
  0
VERTEX
  8
LAYER_1
 10
5.1194
 20
-155.8054
  0
SEQEND
  0
POLYLINE
  8
LAYER_1
 40
0.1764
 41
0.1764
 62
3
 66
1
 10
0
 20
0
 30
0
  0
VERTEX
  8
LAYER_1
 10
0.1203
 20
-157.5355
  0
VERTEX
  8
LAYER_1
 10
6.1161
 20
-157.5349
  0
SEQEND
  0
ENDBLK
  0
BLOCK
  8
LAYER_1
  2
AIGNBL01020069
 70
64
 10
0
 20
0
 30
0
  3
AIGNBL01020069
  0
POLYLINE
  8
LAYER_1
 40
0.05
 41
0.05
 66
1
 10
0
 20
0
 30
0
  0
VERTEX
  8
LAYER_1
 10
-13.701
 20
-238.8858
 42
-0.1252285792
  0
VERTEX
  8
LAYER_1
 10
-13.534
 20
-238.3025
 42
-0.2650428599
  0
VERTEX
  8
LAYER_1
 10
-12.6144
 20
-237.7916
 42
-0.2839090371
  0
VERTEX
  8
LAYER_1
 10
-11.7178
 20
-238.354
 42
-0.1042463024
  0
VERTEX
  8
LAYER_1
 10
-11.5746
 20
-238.8858
  0
VERTEX
  8
LAYER_1
 10
-13.701
 20
-238.8858
  0
SEQEND
  0
POLYLINE
  8
LAYER_1
 40
0.05
 41
0.05
 66
1
 10
0
 20
0
 30
0
 70
1
  0
VERTEX
  8
LAYER_1
 10
-10.6635
 20
-239.4861
 42
0.1775305336
  0
VERTEX
  8
LAYER_1
 10
-11.0308
 20
-237.9007
 42
0.2464913252
  0
VERTEX
  8
LAYER_1
 10
-12.6144
 20
-237.0726
 42
0.1951403994
  0
VERTEX
  8
LAYER_1
 10
-13.9735
 20
-237.6148
 42
0.09656579056
  0
VERTEX
  8
LAYER_1
 10
-14.4176
 20
-238.2744
 42
0.1015142513
  0
VERTEX
  8
LAYER_1
 10
-14.6128
 20
-239.2546
 42
0.08390151779
  0
VERTEX
  8
LAYER_1
 10
-14.4704
 20
-240.1552
 42
0.09891570241
  0
VERTEX
  8
LAYER_1
 10
-14.0869
 20
-240.8187
 42
0.105368816
  0
VERTEX
  8
LAYER_1
 10
-13.4985
 20
-241.2484
 42
0.1070957523
  0
VERTEX
  8
LAYER_1
 10
-12.5892
 20
-241.4298
 42
0.09362988012
  0
VERTEX
  8
LAYER_1
 10
-11.7953
 20
-241.285
 42
0.2070463542
  0
VERTEX
  8
LAYER_1
 10
-10.8046
 20
-240.3036
 42
0.04083588945
  0
VERTEX
  8
LAYER_1
 10
-10.7194
 20
-240.0218
  0
VERTEX
  8
LAYER_1
 10
-11.5837
 20
-240.0218
 42
-0.1368131602
  0
VERTEX
  8
LAYER_1
 10
-11.8884
 20
-240.4903
 42
-0.1839085751
  0
VERTEX
  8
LAYER_1
 10
-12.5892
 20
-240.7088
 42
-0.1304590533
  0
VERTEX
  8
LAYER_1
 10
-13.1593
 20
-240.57
 42
-0.1421384483
  0
VERTEX
  8
LAYER_1
 10
-13.543
 20
-240.1701
 42
-0.1231386085
  0
VERTEX
  8
LAYER_1
 10
-13.701
 20
-239.4861
  0
SEQEND
  0
ENDBLK
  0
BLOCK
  8
LAYER_1
  2
AIGNBL0102006A
 70
64
 10
0
 20
0
 30
0
  3
AIGNBL0102006A
  0
POLYLINE
  8
LAYER_1
 40
0.05
 41
0.05
 66
1
 10
0
 20
0
 30
0
  0
VERTEX
  8
LAYER_1
 10
-4.9423
 20
-239.9265
 42
-0.1722173616
  0
VERTEX
  8
LAYER_1
 10
-5.0849
 20
-240.3454
 42
-0.143165264
  0
VERTEX
  8
LAYER_1
 10
-5.5297
 20
-240.6361
 42
-0.08017556276
  0
VERTEX
  8
LAYER_1
 10
-5.9664
 20
-240.7088
 42
-0.1240040434
  0
VERTEX
  8
LAYER_1
 10
-6.5596
 20
-240.5698
 42
-0.2721004787
  0
VERTEX
  8
LAYER_1
 10
-6.8054
 20
-240.1812
 42
-0.3817706385
  0
VERTEX
  8
LAYER_1
 10
-6.2322
 20
-239.5287
 42
-0.03087035348
  0
VERTEX
  8
LAYER_1
 10
-6.0615
 20
-239.4943
 42
0.1200909403
  0
VERTEX
  8
LAYER_1
 10
-4.9423
 20
-239.2462
  0
VERTEX
  8
LAYER_1
 10
-4.9423
 20
-239.9265
  0
SEQEND
  0
POLYLINE
  8
LAYER_1
 40
0.05
 41
0.05
 66
1
 10
0
 20
0
 30
0
 70
1
  0
VERTEX
  8
LAYER_1
 10
-4.031
 20
-238.271
 42
0.275676913
  0
VERTEX
  8
LAYER_1
 10
-4.5859
 20
-237.3275
 42
0.13367934
  0
VERTEX
  8
LAYER_1
 10
-5.6856
 20
-237.0726
 42
0.0814270283
  0
VERTEX
  8
LAYER_1
 10
-6.6072
 20
-237.2071
 42
0.1155565896
  0
VERTEX
  8
LAYER_1
 10
-7.1951
 20
-237.5579
 42
0.1899787983
  0
VERTEX
  8
LAYER_1
 10
-7.5652
 20
-238.4461
  0
VERTEX
  8
LAYER_1
 10
-6.6525
 20
-238.4461
 42
-0.3552686633
  0
VERTEX
  8
LAYER_1
 10
-6.0437
 20
-237.8195
 42
-0.0624420422
  0
VERTEX
  8
LAYER_1
 10
-5.7419
 20
-237.7916
 42
-0.1259254201
  0
VERTEX
  8
LAYER_1
 10
-5.1379
 20
-237.9138
 42
-0.2833148189
  0
VERTEX
  8
LAYER_1
 10
-4.8864
 20
-238.3503
 42
-0.2208801714
  0
VERTEX
  8
LAYER_1
 10
-5.0133
 20
-238.6759
 42
-0.15232949
  0
VERTEX
  8
LAYER_1
 10
-5.5607
 20
-238.8553
 42
-0.02228576656
  0
VERTEX
  8
LAYER_1
 10
-6.1267
 20
-238.9336
 42
0.08179464813
  0
VERTEX
  8
LAYER_1
 10
-7.0753
 20
-239.1536
 42
0.3126172455
  0
VERTEX
  8
LAYER_1
 10
-7.7154
 20
-240.2224
 42
0.2635342396
  0
VERTEX
  8
LAYER_1
 10
-7.1722
 20
-241.2075
 42
0.1373672704
  0
VERTEX
  8
LAYER_1
 10
-6.301
 20
-241.4298
 42
0.08833346482
  0
VERTEX
  8
LAYER_1
 10
-5.4441
 20
-241.2766
 42
0.1043811603
  0
VERTEX
  8
LAYER_1
 10
-4.8708
 20
-240.9244
 42
0.4001185024
  0
VERTEX
  8
LAYER_1
 10
-4.1672
 20
-241.4298
 42
0.06953389779
  0
VERTEX
  8
LAYER_1
 10
-3.5917
 20
-241.3239
  0
VERTEX
  8
LAYER_1
 10
-3.5917
 20
-240.6931
  0
VERTEX
  8
LAYER_1
 10
-3.815
 20
-240.7088
 42
-0.3598489854
  0
VERTEX
  8
LAYER_1
 10
-4.0088
 20
-240.588
 42
-0.1611211949
  0
VERTEX
  8
LAYER_1
 10
-4.031
 20
-240.3965
  0
SEQEND
  0
ENDBLK
  0
BLOCK
  8
LAYER_1
  2
AIGNBL0102006B
 70
64
 10
0
 20
0
 30
0
  3
AIGNBL0102006B
  0
POLYLINE
  8
LAYER_1
 40
0.05
 41
0.05
 66
1
 10
0
 20
0
 30
0
  0
VERTEX
  8
LAYER_1
 10
2.9975
 20
-237.1841
  0
VERTEX
  8
LAYER_1
 10
3.9095
 20
-237.1841
  0
VERTEX
  8
LAYER_1
 10
3.9095
 20
-241.3163
  0
VERTEX
  8
LAYER_1
 10
2.9975
 20
-241.3163
  0
VERTEX
  8
LAYER_1
 10
2.9975
 20
-237.1841
  0
SEQEND
  0
POLYLINE
  8
LAYER_1
 40
0.05
 41
0.05
 66
1
 10
0
 20
0
 30
0
 70
1
  0
VERTEX
  8
LAYER_1
 10
2.9975
 20
-235.6088
  0
VERTEX
  8
LAYER_1
 10
3.9095
 20
-235.6088
  0
VERTEX
  8
LAYER_1
 10
3.9095
 20
-236.4712
  0
VERTEX
  8
LAYER_1
 10
2.9975
 20
-236.4712
  0
SEQEND
  0
ENDBLK
  0
BLOCK
  8
LAYER_1
  2
AIGNBL01010002
 70
64
 10
0
 20
0
 30
0
  3
AIGNBL01010002
  0
INSERT
  8
LAYER_1
  2
AIGNBL01020003
 10
0
 20
0
 30
0
  0
TEXT
  8
LAYER_1
 10
1.7103
 20
-91.406
 11
1.7103
 21
-91.406
 40
4.1737
 41
0.5
  1
A
  0
ENDBLK
  0
BLOCK
  8
LAYER_1
  2
AIGNBL01010004
 70
64
 10
0
 20
0
 30
0
  3
AIGNBL01010004
  0
POLYLINE
  8
LAYER_1
 40
0.1764
 41
0.1764
 62
1
 66
1
 10
0
 20
0
 30
0
  0
VERTEX
  8
LAYER_1
 10
11.408
 20
-93.7928
  0
VERTEX
  8
LAYER_1
 10
-4.5919
 20
-93.7928
  0
VERTEX
  8
LAYER_1
 10
-0.8397
 20
-100.2893
  0
SEQEND
  0
POLYLINE
  8
LAYER_1
 40
0.1764
 41
0.1764
 62
1
 66
1
 10
0
 20
0
 30
0
  0
VERTEX
  8
LAYER_1
 10
-2.593
 20
-93.7928
  0
VERTEX
  8
LAYER_1
 10
-4.5919
 20
-93.7928
  0
SEQEND
  0
POLYLINE
  8
LAYER_1
 40
0.1764
 41
0.1764
 62
1
 66
1
 10
0
 20
0
 30
0
  0
VERTEX
  8
LAYER_1
 10
-0.5941
 20
-93.7928
  0
VERTEX
  8
LAYER_1
 10
-2.593
 20
-93.7928
  0
SEQEND
  0
POLYLINE
  8
LAYER_1
 40
0.1764
 41
0.1764
 62
1
 66
1
 10
0
 20
0
 30
0
  0
VERTEX
  8
LAYER_1
 10
1.4049
 20
-93.7928
  0
VERTEX
  8
LAYER_1
 10
-0.5941
 20
-93.7928
  0
SEQEND
  0
POLYLINE
  8
LAYER_1
 40
0.1764
 41
0.1764
 62
1
 66
1
 10
0
 20
0
 30
0
  0
VERTEX
  8
LAYER_1
 10
3.4038
 20
-93.7928
  0
VERTEX
  8
LAYER_1
 10
1.4049
 20
-93.7928
  0
SEQEND
  0
POLYLINE
  8
LAYER_1
 40
0.1764
 41
0.1764
 62
1
 66
1
 10
0
 20
0
 30
0
  0
VERTEX
  8
LAYER_1
 10
5.4027
 20
-93.7928
  0
VERTEX
  8
LAYER_1
 10
3.4038
 20
-93.7928
  0
SEQEND
  0
POLYLINE
  8
LAYER_1
 40
0.1764
 41
0.1764
 62
1
 66
1
 10
0
 20
0
 30
0
  0
VERTEX
  8
LAYER_1
 10
7.4017
 20
-93.7928
  0
VERTEX
  8
LAYER_1
 10
5.4027
 20
-93.7928
  0
SEQEND
  0
POLYLINE
  8
LAYER_1
 40
0.1764
 41
0.1764
 62
1
 66
1
 10
0
 20
0
 30
0
  0
VERTEX
  8
LAYER_1
 10
9.4006
 20
-93.7928
  0
VERTEX
  8
LAYER_1
 10
7.4017
 20
-93.7928
  0
SEQEND
  0
POLYLINE
  8
LAYER_1
 40
0.1764
 41
0.1764
 62
1
 66
1
 10
0
 20
0
 30
0
  0
VERTEX
  8
LAYER_1
 10
-2.593
 20
-93.7928
  0
VERTEX
  8
LAYER_1
 10
1.371
 20
-100.662
  0
SEQEND
  0
POLYLINE
  8
LAYER_1
 40
0.1764
 41
0.1764
 62
1
 66
1
 10
0
 20
0
 30
0
  0
VERTEX
  8
LAYER_1
 10
-0.5941
 20
-93.7928
  0
VERTEX
  8
LAYER_1
 10
3.2429
 20
-100.4333
  0
SEQEND
  0
POLYLINE
  8
LAYER_1
 40
0.1764
 41
0.1764
 62
1
 66
1
 10
0
 20
0
 30
0
  0
VERTEX
  8
LAYER_1
 10
1.4048
 20
-93.7928
  0
VERTEX
  8
LAYER_1
 10
5.1994
 20
-100.3656
  0
SEQEND
  0
POLYLINE
  8
LAYER_1
 40
0.1764
 41
0.1764
 62
1
 66
1
 10
0
 20
0
 30
0
  0
VERTEX
  8
LAYER_1
 10
7.4016
 20
-100.7213
  0
VERTEX
  8
LAYER_1
 10
-0.5941
 20
-100.7213
  0
SEQEND
  0
POLYLINE
  8
LAYER_1
 40
0.1764
 41
0.1764
 62
1
 66
1
 10
0
 20
0
 30
0
  0
VERTEX
  8
LAYER_1
 10
-0.8397
 20
-100.2893
  0
VERTEX
  8
LAYER_1
 10
-0.5941
 20
-100.7213
  0
SEQEND
  0
POLYLINE
  8
LAYER_1
 40
0.1764
 41
0.1764
 62
1
 66
1
 10
0
 20
0
 30
0
  0
VERTEX
  8
LAYER_1
 10
3.2428
 20
-100.4333
  0
VERTEX
  8
LAYER_1
 10
3.4038
 20
-100.7213
  0
SEQEND
  0
POLYLINE
  8
LAYER_1
 40
0.1764
 41
0.1764
 62
1
 66
1
 10
0
 20
0
 30
0
  0
VERTEX
  8
LAYER_1
 10
5.1994
 20
-100.3656
  0
VERTEX
  8
LAYER_1
 10
5.4027
 20
-100.7213
  0
SEQEND
  0
POLYLINE
  8
LAYER_1
 40
0.1764
 41
0.1764
 62
1
 66
1
 10
0
 20
0
 30
0
  0
VERTEX
  8
LAYER_1
 10
11.408
 20
-93.7928
  0
VERTEX
  8
LAYER_1
 10
7.4016
 20
-100.7213
  0
SEQEND
  0
POLYLINE
  8
LAYER_1
 40
0.1764
 41
0.1764
 62
1
 66
1
 10
0
 20
0
 30
0
  0
VERTEX
  8
LAYER_1
 10
3.4038
 20
-93.7928
  0
VERTEX
  8
LAYER_1
 10
7.4016
 20
-100.7213
  0
SEQEND
  0
POLYLINE
  8
LAYER_1
 40
0.1764
 41
0.1764
 62
1
 66
1
 10
0
 20
0
 30
0
  0
VERTEX
  8
LAYER_1
 10
5.4027
 20
-93.7928
  0
VERTEX
  8
LAYER_1
 10
4.4032
 20
-95.5207
  0
SEQEND
  0
POLYLINE
  8
LAYER_1
 40
0.1764
 41
0.1764
 62
1
 66
1
 10
0
 20
0
 30
0
  0
VERTEX
  8
LAYER_1
 10
7.4016
 20
-93.7928
  0
VERTEX
  8
LAYER_1
 10
5.4027
 20
-97.257
  0
SEQEND
  0
POLYLINE
  8
LAYER_1
 40
0.1764
 41
0.1764
 62
1
 66
1
 10
0
 20
0
 30
0
  0
VERTEX
  8
LAYER_1
 10
9.4006
 20
-93.7928
  0
VERTEX
  8
LAYER_1
 10
6.4022
 20
-98.9849
  0
SEQEND
  0
TEXT
  8
LAYER_1
 10
4.2165
 20
-95.6693
 11
4.2165
 21
-95.6693
 40
4.1737
 41
0.5
 50
180
  1
B
  0
ENDBLK
  0
BLOCK
  8
LAYER_1
  2
AIGNBL01010005
 70
64
 10
0
 20
0
 30
0
  3
AIGNBL01010005
  0
INSERT
  8
LAYER_1
  2
AIGNBL01020006
 10
0
 20
0
 30
0
  0
TEXT
  8
LAYER_1
 10
-10.7945
 20
-220.1299
 11
-10.7945
 21
-220.1299
 40
5.6299
 41
0.5
  1
A
  0
ENDBLK
  0
BLOCK
  8
LAYER_1
  2
AIGNBL01010007
 70
64
 10
0
 20
0
 30
0
  3
AIGNBL01010007
  0
POLYLINE
  8
LAYER_1
 40
0.1764
 41
0.1764
 62
1
 66
1
 10
0
 20
0
 30
0
  0
VERTEX
  8
LAYER_1
 10
6.1387
 20
-222.9382
  0
VERTEX
  8
LAYER_1
 10
27.7214
 20
-222.9382
  0
VERTEX
  8
LAYER_1
 10
22.6599
 20
-214.1749
  0
SEQEND
  0
POLYLINE
  8
LAYER_1
 40
0.1764
 41
0.1764
 62
1
 66
1
 10
0
 20
0
 30
0
  0
VERTEX
  8
LAYER_1
 10
25.0249
 20
-222.9382
  0
VERTEX
  8
LAYER_1
 10
27.7213
 20
-222.9382
  0
SEQEND
  0
POLYLINE
  8
LAYER_1
 40
0.1764
 41
0.1764
 62
1
 66
1
 10
0
 20
0
 30
0
  0
VERTEX
  8
LAYER_1
 10
22.3286
 20
-222.9382
  0
VERTEX
  8
LAYER_1
 10
25.0249
 20
-222.9382
  0
SEQEND
  0
POLYLINE
  8
LAYER_1
 40
0.1764
 41
0.1764
 62
1
 66
1
 10
0
 20
0
 30
0
  0
VERTEX
  8
LAYER_1
 10
19.6322
 20
-222.9382
  0
VERTEX
  8
LAYER_1
 10
22.3286
 20
-222.9382
  0
SEQEND
  0
POLYLINE
  8
LAYER_1
 40
0.1764
 41
0.1764
 62
1
 66
1
 10
0
 20
0
 30
0
  0
VERTEX
  8
LAYER_1
 10
16.9358
 20
-222.9382
  0
VERTEX
  8
LAYER_1
 10
19.6322
 20
-222.9382
  0
SEQEND
  0
POLYLINE
  8
LAYER_1
 40
0.1764
 41
0.1764
 62
1
 66
1
 10
0
 20
0
 30
0
  0
VERTEX
  8
LAYER_1
 10
14.2394
 20
-222.9382
  0
VERTEX
  8
LAYER_1
 10
16.9358
 20
-222.9382
  0
SEQEND
  0
POLYLINE
  8
LAYER_1
 40
0.1764
 41
0.1764
 62
1
 66
1
 10
0
 20
0
 30
0
  0
VERTEX
  8
LAYER_1
 10
11.543
 20
-222.9382
  0
VERTEX
  8
LAYER_1
 10
14.2394
 20
-222.9382
  0
SEQEND
  0
POLYLINE
  8
LAYER_1
 40
0.1764
 41
0.1764
 62
1
 66
1
 10
0
 20
0
 30
0
  0
VERTEX
  8
LAYER_1
 10
8.8466
 20
-222.9382
  0
VERTEX
  8
LAYER_1
 10
11.543
 20
-222.9382
  0
SEQEND
  0
POLYLINE
  8
LAYER_1
 40
0.1764
 41
0.1764
 62
1
 66
1
 10
0
 20
0
 30
0
  0
VERTEX
  8
LAYER_1
 10
25.025
 20
-222.9382
  0
VERTEX
  8
LAYER_1
 10
19.6779
 20
-213.6722
  0
SEQEND
  0
POLYLINE
  8
LAYER_1
 40
0.1764
 41
0.1764
 62
1
 66
1
 10
0
 20
0
 30
0
  0
VERTEX
  8
LAYER_1
 10
22.3286
 20
-222.9382
  0
VERTEX
  8
LAYER_1
 10
17.1529
 20
-213.9807
  0
SEQEND
  0
POLYLINE
  8
LAYER_1
 40
0.1764
 41
0.1764
 62
1
 66
1
 10
0
 20
0
 30
0
  0
VERTEX
  8
LAYER_1
 10
19.6322
 20
-222.9382
  0
VERTEX
  8
LAYER_1
 10
14.5136
 20
-214.0721
  0
SEQEND
  0
POLYLINE
  8
LAYER_1
 40
0.1764
 41
0.1764
 62
1
 66
1
 10
0
 20
0
 30
0
  0
VERTEX
  8
LAYER_1
 10
11.543
 20
-213.5922
  0
VERTEX
  8
LAYER_1
 10
22.3286
 20
-213.5922
  0
SEQEND
  0
POLYLINE
  8
LAYER_1
 40
0.1764
 41
0.1764
 62
1
 66
1
 10
0
 20
0
 30
0
  0
VERTEX
  8
LAYER_1
 10
22.6599
 20
-214.1749
  0
VERTEX
  8
LAYER_1
 10
22.3286
 20
-213.5922
  0
SEQEND
  0
POLYLINE
  8
LAYER_1
 40
0.1764
 41
0.1764
 62
1
 66
1
 10
0
 20
0
 30
0
  0
VERTEX
  8
LAYER_1
 10
17.1529
 20
-213.9807
  0
VERTEX
  8
LAYER_1
 10
16.9358
 20
-213.5922
  0
SEQEND
  0
POLYLINE
  8
LAYER_1
 40
0.1764
 41
0.1764
 62
1
 66
1
 10
0
 20
0
 30
0
  0
VERTEX
  8
LAYER_1
 10
14.5136
 20
-214.0721
  0
VERTEX
  8
LAYER_1
 10
14.2394
 20
-213.5922
  0
SEQEND
  0
POLYLINE
  8
LAYER_1
 40
0.1764
 41
0.1764
 62
1
 66
1
 10
0
 20
0
 30
0
  0
VERTEX
  8
LAYER_1
 10
6.1388
 20
-222.9382
  0
VERTEX
  8
LAYER_1
 10
11.543
 20
-213.5922
  0
SEQEND
  0
POLYLINE
  8
LAYER_1
 40
0.1764
 41
0.1764
 62
1
 66
1
 10
0
 20
0
 30
0
  0
VERTEX
  8
LAYER_1
 10
16.9358
 20
-222.9382
  0
VERTEX
  8
LAYER_1
 10
11.543
 20
-213.5922
  0
SEQEND
  0
POLYLINE
  8
LAYER_1
 40
0.1764
 41
0.1764
 62
1
 66
1
 10
0
 20
0
 30
0
  0
VERTEX
  8
LAYER_1
 10
14.2394
 20
-222.9382
  0
VERTEX
  8
LAYER_1
 10
15.5876
 20
-220.6075
  0
SEQEND
  0
POLYLINE
  8
LAYER_1
 40
0.1764
 41
0.1764
 62
1
 66
1
 10
0
 20
0
 30
0
  0
VERTEX
  8
LAYER_1
 10
11.543
 20
-222.9382
  0
VERTEX
  8
LAYER_1
 10
14.2394
 20
-218.2652
  0
SEQEND
  0
POLYLINE
  8
LAYER_1
 40
0.1764
 41
0.1764
 62
1
 66
1
 10
0
 20
0
 30
0
  0
VERTEX
  8
LAYER_1
 10
8.8466
 20
-222.9382
  0
VERTEX
  8
LAYER_1
 10
12.8912
 20
-215.9345
  0
SEQEND
  0
TEXT
  8
LAYER_1
 10
15.8395
 20
-220.4072
 11
15.8395
 21
-220.4072
 40
5.6299
 41
0.5
  1
B
  0
ENDBLK
  0
BLOCK
  8
LAYER_1
  2
AIGNBL01010008
 70
64
 10
0
 20
0
 30
0
  3
AIGNBL01010008
  0
INSERT
  8
LAYER_1
  2
AIGNBL01020009
 10
0
 20
0
 30
0
  0
TEXT
  8
LAYER_1
 10
14.8917
 20
-103.5959
 11
14.8917
 21
-103.5959
 40
4.1737
 41
0.5
 50
119.9998689
  1
A
  0
ENDBLK
  0
BLOCK
  8
LAYER_1
  2
AIGNBL0101000A
 70
64
 10
0
 20
0
 30
0
  3
AIGNBL0101000A
  0
POLYLINE
  8
LAYER_1
 40
0.1764
 41
0.1764
 62
1
 66
1
 10
0
 20
0
 30
0
  0
VERTEX
  8
LAYER_1
 10
12.0964
 20
-94.0165
  0
VERTEX
  8
LAYER_1
 10
20.0964
 20
-107.8729
  0
VERTEX
  8
LAYER_1
 10
23.8464
 20
-101.3751
  0
SEQEND
  0
POLYLINE
  8
LAYER_1
 40
0.1764
 41
0.1764
 62
1
 66
1
 10
0
 20
0
 30
0
  0
VERTEX
  8
LAYER_1
 10
19.0969
 20
-106.1417
  0
VERTEX
  8
LAYER_1
 10
20.0964
 20
-107.8729
  0
SEQEND
  0
POLYLINE
  8
LAYER_1
 40
0.1764
 41
0.1764
 62
1
 66
1
 10
0
 20
0
 30
0
  0
VERTEX
  8
LAYER_1
 10
18.0974
 20
-104.4106
  0
VERTEX
  8
LAYER_1
 10
19.0969
 20
-106.1417
  0
SEQEND
  0
POLYLINE
  8
LAYER_1
 40
0.1764
 41
0.1764
 62
1
 66
1
 10
0
 20
0
 30
0
  0
VERTEX
  8
LAYER_1
 10
17.098
 20
-102.6795
  0
VERTEX
  8
LAYER_1
 10
18.0974
 20
-104.4106
  0
SEQEND
  0
POLYLINE
  8
LAYER_1
 40
0.1764
 41
0.1764
 62
1
 66
1
 10
0
 20
0
 30
0
  0
VERTEX
  8
LAYER_1
 10
16.0985
 20
-100.9484
  0
VERTEX
  8
LAYER_1
 10
17.098
 20
-102.6795
  0
SEQEND
  0
POLYLINE
  8
LAYER_1
 40
0.1764
 41
0.1764
 62
1
 66
1
 10
0
 20
0
 30
0
  0
VERTEX
  8
LAYER_1
 10
15.099
 20
-99.2172
  0
VERTEX
  8
LAYER_1
 10
16.0985
 20
-100.9484
  0
SEQEND
  0
POLYLINE
  8
LAYER_1
 40
0.1764
 41
0.1764
 62
1
 66
1
 10
0
 20
0
 30
0
  0
VERTEX
  8
LAYER_1
 10
14.0996
 20
-97.4861
  0
VERTEX
  8
LAYER_1
 10
15.099
 20
-99.2172
  0
SEQEND
  0
POLYLINE
  8
LAYER_1
 40
0.1764
 41
0.1764
 62
1
 66
1
 10
0
 20
0
 30
0
  0
VERTEX
  8
LAYER_1
 10
13.1001
 20
-95.755
  0
VERTEX
  8
LAYER_1
 10
14.0996
 20
-97.4861
  0
SEQEND
  0
POLYLINE
  8
LAYER_1
 40
0.1764
 41
0.1764
 62
1
 66
1
 10
0
 20
0
 30
0
  0
VERTEX
  8
LAYER_1
 10
19.0969
 20
-106.1418
  0
VERTEX
  8
LAYER_1
 10
23.0638
 20
-99.2742
  0
SEQEND
  0
POLYLINE
  8
LAYER_1
 40
0.1764
 41
0.1764
 62
1
 66
1
 10
0
 20
0
 30
0
  0
VERTEX
  8
LAYER_1
 10
18.0974
 20
-104.4106
  0
VERTEX
  8
LAYER_1
 10
21.9298
 20
-97.7675
  0
SEQEND
  0
POLYLINE
  8
LAYER_1
 40
0.1764
 41
0.1764
 62
1
 66
1
 10
0
 20
0
 30
0
  0
VERTEX
  8
LAYER_1
 10
17.098
 20
-102.6795
  0
VERTEX
  8
LAYER_1
 10
20.8929
 20
-96.1069
  0
SEQEND
  0
POLYLINE
  8
LAYER_1
 40
0.1764
 41
0.1764
 62
1
 66
1
 10
0
 20
0
 30
0
  0
VERTEX
  8
LAYER_1
 10
20.0998
 20
-94.0219
  0
VERTEX
  8
LAYER_1
 10
24.0977
 20
-100.9464
  0
SEQEND
  0
POLYLINE
  8
LAYER_1
 40
0.1764
 41
0.1764
 62
1
 66
1
 10
0
 20
0
 30
0
  0
VERTEX
  8
LAYER_1
 10
23.8464
 20
-101.3751
  0
VERTEX
  8
LAYER_1
 10
24.0977
 20
-100.9464
  0
SEQEND
  0
POLYLINE
  8
LAYER_1
 40
0.1764
 41
0.1764
 62
1
 66
1
 10
0
 20
0
 30
0
  0
VERTEX
  8
LAYER_1
 10
21.9298
 20
-97.7675
  0
VERTEX
  8
LAYER_1
 10
22.0988
 20
-97.4841
  0
SEQEND
  0
POLYLINE
  8
LAYER_1
 40
0.1764
 41
0.1764
 62
1
 66
1
 10
0
 20
0
 30
0
  0
VERTEX
  8
LAYER_1
 10
20.8929
 20
-96.1069
  0
VERTEX
  8
LAYER_1
 10
21.0993
 20
-95.753
  0
SEQEND
  0
POLYLINE
  8
LAYER_1
 40
0.1764
 41
0.1764
 62
1
 66
1
 10
0
 20
0
 30
0
  0
VERTEX
  8
LAYER_1
 10
12.0964
 20
-94.0165
  0
VERTEX
  8
LAYER_1
 10
20.0998
 20
-94.0219
  0
SEQEND
  0
POLYLINE
  8
LAYER_1
 40
0.1764
 41
0.1764
 62
1
 66
1
 10
0
 20
0
 30
0
  0
VERTEX
  8
LAYER_1
 10
16.0985
 20
-100.9484
  0
VERTEX
  8
LAYER_1
 10
20.0998
 20
-94.0219
  0
SEQEND
  0
POLYLINE
  8
LAYER_1
 40
0.1764
 41
0.1764
 62
1
 66
1
 10
0
 20
0
 30
0
  0
VERTEX
  8
LAYER_1
 10
15.099
 20
-99.2173
  0
VERTEX
  8
LAYER_1
 10
17.0952
 20
-99.2189
  0
SEQEND
  0
POLYLINE
  8
LAYER_1
 40
0.1764
 41
0.1764
 62
1
 66
1
 10
0
 20
0
 30
0
  0
VERTEX
  8
LAYER_1
 10
14.0996
 20
-97.4861
  0
VERTEX
  8
LAYER_1
 10
18.0992
 20
-97.4851
  0
SEQEND
  0
POLYLINE
  8
LAYER_1
 40
0.1764
 41
0.1764
 62
1
 66
1
 10
0
 20
0
 30
0
  0
VERTEX
  8
LAYER_1
 10
13.1001
 20
-95.755
  0
VERTEX
  8
LAYER_1
 10
19.0958
 20
-95.7556
  0
SEQEND
  0
TEXT
  8
LAYER_1
 10
17.6844
 20
-99.2195
 11
17.6844
 21
-99.2195
 40
4.1737
 41
0.5
 50
299.999869
  1
B
  0
ENDBLK
  0
BLOCK
  8
LAYER_1
  2
AIGNBL0101000B
 70
64
 10
0
 20
0
 30
0
  3
AIGNBL0101000B
  0
INSERT
  8
LAYER_1
  2
AIGNBL0102000C
 10
0
 20
0
 30
0
  0
TEXT
  8
LAYER_1
 10
18.8602
 20
-86.2043
 11
18.8602
 21
-86.2043
 40
4.1737
 41
0.5
 50
240.0001311
  1
A
  0
ENDBLK
  0
BLOCK
  8
LAYER_1
  2
AIGNBL0101000D
 70
64
 10
0
 20
0
 30
0
  3
AIGNBL0101000D
  0
POLYLINE
  8
LAYER_1
 40
0.1764
 41
0.1764
 62
1
 66
1
 10
0
 20
0
 30
0
  0
VERTEX
  8
LAYER_1
 10
11.9576
 20
-93.3962
  0
VERTEX
  8
LAYER_1
 10
19.9576
 20
-79.5399
  0
VERTEX
  8
LAYER_1
 10
12.4553
 20
-79.5411
  0
SEQEND
  0
POLYLINE
  8
LAYER_1
 40
0.1764
 41
0.1764
 62
1
 66
1
 10
0
 20
0
 30
0
  0
VERTEX
  8
LAYER_1
 10
18.9581
 20
-81.271
  0
VERTEX
  8
LAYER_1
 10
19.9576
 20
-79.5399
  0
SEQEND
  0
POLYLINE
  8
LAYER_1
 40
0.1764
 41
0.1764
 62
1
 66
1
 10
0
 20
0
 30
0
  0
VERTEX
  8
LAYER_1
 10
17.9586
 20
-83.0021
  0
VERTEX
  8
LAYER_1
 10
18.9581
 20
-81.271
  0
SEQEND
  0
POLYLINE
  8
LAYER_1
 40
0.1764
 41
0.1764
 62
1
 66
1
 10
0
 20
0
 30
0
  0
VERTEX
  8
LAYER_1
 10
16.9592
 20
-84.7332
  0
VERTEX
  8
LAYER_1
 10
17.9586
 20
-83.0021
  0
SEQEND
  0
POLYLINE
  8
LAYER_1
 40
0.1764
 41
0.1764
 62
1
 66
1
 10
0
 20
0
 30
0
  0
VERTEX
  8
LAYER_1
 10
15.9597
 20
-86.4644
  0
VERTEX
  8
LAYER_1
 10
16.9592
 20
-84.7332
  0
SEQEND
  0
POLYLINE
  8
LAYER_1
 40
0.1764
 41
0.1764
 62
1
 66
1
 10
0
 20
0
 30
0
  0
VERTEX
  8
LAYER_1
 10
14.9602
 20
-88.1955
  0
VERTEX
  8
LAYER_1
 10
15.9597
 20
-86.4644
  0
SEQEND
  0
POLYLINE
  8
LAYER_1
 40
0.1764
 41
0.1764
 62
1
 66
1
 10
0
 20
0
 30
0
  0
VERTEX
  8
LAYER_1
 10
13.9608
 20
-89.9266
  0
VERTEX
  8
LAYER_1
 10
14.9602
 20
-88.1955
  0
SEQEND
  0
POLYLINE
  8
LAYER_1
 40
0.1764
 41
0.1764
 62
1
 66
1
 10
0
 20
0
 30
0
  0
VERTEX
  8
LAYER_1
 10
12.9613
 20
-91.6577
  0
VERTEX
  8
LAYER_1
 10
13.9608
 20
-89.9266
  0
SEQEND
  0
POLYLINE
  8
LAYER_1
 40
0.1764
 41
0.1764
 62
1
 66
1
 10
0
 20
0
 30
0
  0
VERTEX
  8
LAYER_1
 10
18.9581
 20
-81.271
  0
VERTEX
  8
LAYER_1
 10
11.0272
 20
-81.2693
  0
SEQEND
  0
POLYLINE
  8
LAYER_1
 40
0.1764
 41
0.1764
 62
1
 66
1
 10
0
 20
0
 30
0
  0
VERTEX
  8
LAYER_1
 10
17.9586
 20
-83.0021
  0
VERTEX
  8
LAYER_1
 10
10.2893
 20
-83.0047
  0
SEQEND
  0
POLYLINE
  8
LAYER_1
 40
0.1764
 41
0.1764
 62
1
 66
1
 10
0
 20
0
 30
0
  0
VERTEX
  8
LAYER_1
 10
16.9592
 20
-84.7332
  0
VERTEX
  8
LAYER_1
 10
9.3697
 20
-84.733
  0
SEQEND
  0
POLYLINE
  8
LAYER_1
 40
0.1764
 41
0.1764
 62
1
 66
1
 10
0
 20
0
 30
0
  0
VERTEX
  8
LAYER_1
 10
7.9605
 20
-86.4623
  0
VERTEX
  8
LAYER_1
 10
11.9584
 20
-79.5378
  0
SEQEND
  0
POLYLINE
  8
LAYER_1
 40
0.1764
 41
0.1764
 62
1
 66
1
 10
0
 20
0
 30
0
  0
VERTEX
  8
LAYER_1
 10
12.4553
 20
-79.5411
  0
VERTEX
  8
LAYER_1
 10
11.9584
 20
-79.5378
  0
SEQEND
  0
POLYLINE
  8
LAYER_1
 40
0.1764
 41
0.1764
 62
1
 66
1
 10
0
 20
0
 30
0
  0
VERTEX
  8
LAYER_1
 10
10.2893
 20
-83.0047
  0
VERTEX
  8
LAYER_1
 10
9.9594
 20
-83.0001
  0
SEQEND
  0
POLYLINE
  8
LAYER_1
 40
0.1764
 41
0.1764
 62
1
 66
1
 10
0
 20
0
 30
0
  0
VERTEX
  8
LAYER_1
 10
9.3697
 20
-84.733
  0
VERTEX
  8
LAYER_1
 10
8.96
 20
-84.7312
  0
SEQEND
  0
POLYLINE
  8
LAYER_1
 40
0.1764
 41
0.1764
 62
1
 66
1
 10
0
 20
0
 30
0
  0
VERTEX
  8
LAYER_1
 10
11.9576
 20
-93.3962
  0
VERTEX
  8
LAYER_1
 10
7.9605
 20
-86.4623
  0
SEQEND
  0
POLYLINE
  8
LAYER_1
 40
0.1764
 41
0.1764
 62
1
 66
1
 10
0
 20
0
 30
0
  0
VERTEX
  8
LAYER_1
 10
15.9597
 20
-86.4643
  0
VERTEX
  8
LAYER_1
 10
7.9605
 20
-86.4623
  0
SEQEND
  0
POLYLINE
  8
LAYER_1
 40
0.1764
 41
0.1764
 62
1
 66
1
 10
0
 20
0
 30
0
  0
VERTEX
  8
LAYER_1
 10
14.9602
 20
-88.1954
  0
VERTEX
  8
LAYER_1
 10
13.9636
 20
-86.4659
  0
SEQEND
  0
POLYLINE
  8
LAYER_1
 40
0.1764
 41
0.1764
 62
1
 66
1
 10
0
 20
0
 30
0
  0
VERTEX
  8
LAYER_1
 10
13.9608
 20
-89.9266
  0
VERTEX
  8
LAYER_1
 10
11.9601
 20
-86.4633
  0
SEQEND
  0
POLYLINE
  8
LAYER_1
 40
0.1764
 41
0.1764
 62
1
 66
1
 10
0
 20
0
 30
0
  0
VERTEX
  8
LAYER_1
 10
12.9613
 20
-91.6577
  0
VERTEX
  8
LAYER_1
 10
9.964
 20
-86.4649
  0
SEQEND
  0
TEXT
  8
LAYER_1
 10
13.8662
 20
-85.9669
 11
13.8662
 21
-85.9669
 40
4.1737
 41
0.5
 50
60.00013103
  1
B
  0
ENDBLK
  0
BLOCK
  8
LAYER_1
  2
AIGNBL0101000E
 70
64
 10
0
 20
0
 30
0
  3
AIGNBL0101000E
  0
INSERT
  8
LAYER_1
  2
AIGNBL0102000F
 10
0
 20
0
 30
0
  0
TEXT
  8
LAYER_1
 10
27.188
 20
-91.406
 11
27.188
 21
-91.406
 40
4.1737
 41
0.5
  1
A
  0
ENDBLK
  0
BLOCK
  8
LAYER_1
  2
AIGNBL01010010
 70
64
 10
0
 20
0
 30
0
  3
AIGNBL01010010
  0
POLYLINE
  8
LAYER_1
 40
0.1764
 41
0.1764
 62
1
 66
1
 10
0
 20
0
 30
0
  0
VERTEX
  8
LAYER_1
 10
36.8856
 20
-93.7928
  0
VERTEX
  8
LAYER_1
 10
20.8857
 20
-93.7928
  0
VERTEX
  8
LAYER_1
 10
24.6379
 20
-100.2893
  0
SEQEND
  0
POLYLINE
  8
LAYER_1
 40
0.1764
 41
0.1764
 62
1
 66
1
 10
0
 20
0
 30
0
  0
VERTEX
  8
LAYER_1
 10
22.8846
 20
-93.7928
  0
VERTEX
  8
LAYER_1
 10
20.8857
 20
-93.7928
  0
SEQEND
  0
POLYLINE
  8
LAYER_1
 40
0.1764
 41
0.1764
 62
1
 66
1
 10
0
 20
0
 30
0
  0
VERTEX
  8
LAYER_1
 10
24.8836
 20
-93.7928
  0
VERTEX
  8
LAYER_1
 10
22.8846
 20
-93.7928
  0
SEQEND
  0
POLYLINE
  8
LAYER_1
 40
0.1764
 41
0.1764
 62
1
 66
1
 10
0
 20
0
 30
0
  0
VERTEX
  8
LAYER_1
 10
26.8825
 20
-93.7928
  0
VERTEX
  8
LAYER_1
 10
24.8836
 20
-93.7928
  0
SEQEND
  0
POLYLINE
  8
LAYER_1
 40
0.1764
 41
0.1764
 62
1
 66
1
 10
0
 20
0
 30
0
  0
VERTEX
  8
LAYER_1
 10
28.8814
 20
-93.7928
  0
VERTEX
  8
LAYER_1
 10
26.8825
 20
-93.7928
  0
SEQEND
  0
POLYLINE
  8
LAYER_1
 40
0.1764
 41
0.1764
 62
1
 66
1
 10
0
 20
0
 30
0
  0
VERTEX
  8
LAYER_1
 10
30.8804
 20
-93.7928
  0
VERTEX
  8
LAYER_1
 10
28.8814
 20
-93.7928
  0
SEQEND
  0
POLYLINE
  8
LAYER_1
 40
0.1764
 41
0.1764
 62
1
 66
1
 10
0
 20
0
 30
0
  0
VERTEX
  8
LAYER_1
 10
32.8793
 20
-93.7928
  0
VERTEX
  8
LAYER_1
 10
30.8804
 20
-93.7928
  0
SEQEND
  0
POLYLINE
  8
LAYER_1
 40
0.1764
 41
0.1764
 62
1
 66
1
 10
0
 20
0
 30
0
  0
VERTEX
  8
LAYER_1
 10
34.8782
 20
-93.7928
  0
VERTEX
  8
LAYER_1
 10
32.8793
 20
-93.7928
  0
SEQEND
  0
POLYLINE
  8
LAYER_1
 40
0.1764
 41
0.1764
 62
1
 66
1
 10
0
 20
0
 30
0
  0
VERTEX
  8
LAYER_1
 10
22.8846
 20
-93.7928
  0
VERTEX
  8
LAYER_1
 10
26.8486
 20
-100.662
  0
SEQEND
  0
POLYLINE
  8
LAYER_1
 40
0.1764
 41
0.1764
 62
1
 66
1
 10
0
 20
0
 30
0
  0
VERTEX
  8
LAYER_1
 10
24.8835
 20
-93.7928
  0
VERTEX
  8
LAYER_1
 10
28.7205
 20
-100.4333
  0
SEQEND
  0
POLYLINE
  8
LAYER_1
 40
0.1764
 41
0.1764
 62
1
 66
1
 10
0
 20
0
 30
0
  0
VERTEX
  8
LAYER_1
 10
26.8825
 20
-93.7928
  0
VERTEX
  8
LAYER_1
 10
30.6771
 20
-100.3656
  0
SEQEND
  0
POLYLINE
  8
LAYER_1
 40
0.1764
 41
0.1764
 62
1
 66
1
 10
0
 20
0
 30
0
  0
VERTEX
  8
LAYER_1
 10
32.8793
 20
-100.7213
  0
VERTEX
  8
LAYER_1
 10
24.8835
 20
-100.7213
  0
SEQEND
  0
POLYLINE
  8
LAYER_1
 40
0.1764
 41
0.1764
 62
1
 66
1
 10
0
 20
0
 30
0
  0
VERTEX
  8
LAYER_1
 10
24.6379
 20
-100.2893
  0
VERTEX
  8
LAYER_1
 10
24.8835
 20
-100.7213
  0
SEQEND
  0
POLYLINE
  8
LAYER_1
 40
0.1764
 41
0.1764
 62
1
 66
1
 10
0
 20
0
 30
0
  0
VERTEX
  8
LAYER_1
 10
28.7205
 20
-100.4333
  0
VERTEX
  8
LAYER_1
 10
28.8814
 20
-100.7213
  0
SEQEND
  0
POLYLINE
  8
LAYER_1
 40
0.1764
 41
0.1764
 62
1
 66
1
 10
0
 20
0
 30
0
  0
VERTEX
  8
LAYER_1
 10
30.677
 20
-100.3656
  0
VERTEX
  8
LAYER_1
 10
30.8803
 20
-100.7213
  0
SEQEND
  0
POLYLINE
  8
LAYER_1
 40
0.1764
 41
0.1764
 62
1
 66
1
 10
0
 20
0
 30
0
  0
VERTEX
  8
LAYER_1
 10
36.8856
 20
-93.7928
  0
VERTEX
  8
LAYER_1
 10
32.8793
 20
-100.7213
  0
SEQEND
  0
POLYLINE
  8
LAYER_1
 40
0.1764
 41
0.1764
 62
1
 66
1
 10
0
 20
0
 30
0
  0
VERTEX
  8
LAYER_1
 10
28.8814
 20
-93.7928
  0
VERTEX
  8
LAYER_1
 10
32.8793
 20
-100.7213
  0
SEQEND
  0
POLYLINE
  8
LAYER_1
 40
0.1764
 41
0.1764
 62
1
 66
1
 10
0
 20
0
 30
0
  0
VERTEX
  8
LAYER_1
 10
30.8803
 20
-93.7928
  0
VERTEX
  8
LAYER_1
 10
29.8809
 20
-95.5207
  0
SEQEND
  0
POLYLINE
  8
LAYER_1
 40
0.1764
 41
0.1764
 62
1
 66
1
 10
0
 20
0
 30
0
  0
VERTEX
  8
LAYER_1
 10
32.8792
 20
-93.7928
  0
VERTEX
  8
LAYER_1
 10
30.8803
 20
-97.257
  0
SEQEND
  0
POLYLINE
  8
LAYER_1
 40
0.1764
 41
0.1764
 62
1
 66
1
 10
0
 20
0
 30
0
  0
VERTEX
  8
LAYER_1
 10
34.8782
 20
-93.7928
  0
VERTEX
  8
LAYER_1
 10
31.8798
 20
-98.9849
  0
SEQEND
  0
TEXT
  8
LAYER_1
 10
29.694
 20
-95.6693
 11
29.694
 21
-95.6693
 40
4.1737
 41
0.5
 50
180
  1
B
  0
ENDBLK
  0
BLOCK
  8
LAYER_1
  2
AIGNBL01010011
 70
64
 10
0
 20
0
 30
0
  3
AIGNBL01010011
  0
INSERT
  8
LAYER_1
  2
AIGNBL01020012
 10
0
 20
0
 30
0
  0
TEXT
  8
LAYER_1
 10
40.3694
 20
-103.5959
 11
40.3694
 21
-103.5959
 40
4.1737
 41
0.5
 50
119.9998689
  1
A
  0
ENDBLK
  0
BLOCK
  8
LAYER_1
  2
AIGNBL01010013
 70
64
 10
0
 20
0
 30
0
  3
AIGNBL01010013
  0
POLYLINE
  8
LAYER_1
 40
0.1764
 41
0.1764
 62
1
 66
1
 10
0
 20
0
 30
0
  0
VERTEX
  8
LAYER_1
 10
37.574
 20
-94.0165
  0
VERTEX
  8
LAYER_1
 10
45.574
 20
-107.8729
  0
VERTEX
  8
LAYER_1
 10
49.324
 20
-101.3751
  0
SEQEND
  0
POLYLINE
  8
LAYER_1
 40
0.1764
 41
0.1764
 62
1
 66
1
 10
0
 20
0
 30
0
  0
VERTEX
  8
LAYER_1
 10
44.5745
 20
-106.1417
  0
VERTEX
  8
LAYER_1
 10
45.574
 20
-107.8729
  0
SEQEND
  0
POLYLINE
  8
LAYER_1
 40
0.1764
 41
0.1764
 62
1
 66
1
 10
0
 20
0
 30
0
  0
VERTEX
  8
LAYER_1
 10
43.575
 20
-104.4106
  0
VERTEX
  8
LAYER_1
 10
44.5745
 20
-106.1417
  0
SEQEND
  0
POLYLINE
  8
LAYER_1
 40
0.1764
 41
0.1764
 62
1
 66
1
 10
0
 20
0
 30
0
  0
VERTEX
  8
LAYER_1
 10
42.5756
 20
-102.6795
  0
VERTEX
  8
LAYER_1
 10
43.575
 20
-104.4106
  0
SEQEND
  0
POLYLINE
  8
LAYER_1
 40
0.1764
 41
0.1764
 62
1
 66
1
 10
0
 20
0
 30
0
  0
VERTEX
  8
LAYER_1
 10
41.5761
 20
-100.9484
  0
VERTEX
  8
LAYER_1
 10
42.5756
 20
-102.6795
  0
SEQEND
  0
POLYLINE
  8
LAYER_1
 40
0.1764
 41
0.1764
 62
1
 66
1
 10
0
 20
0
 30
0
  0
VERTEX
  8
LAYER_1
 10
40.5767
 20
-99.2172
  0
VERTEX
  8
LAYER_1
 10
41.5761
 20
-100.9484
  0
SEQEND
  0
POLYLINE
  8
LAYER_1
 40
0.1764
 41
0.1764
 62
1
 66
1
 10
0
 20
0
 30
0
  0
VERTEX
  8
LAYER_1
 10
39.5772
 20
-97.4861
  0
VERTEX
  8
LAYER_1
 10
40.5767
 20
-99.2172
  0
SEQEND
  0
POLYLINE
  8
LAYER_1
 40
0.1764
 41
0.1764
 62
1
 66
1
 10
0
 20
0
 30
0
  0
VERTEX
  8
LAYER_1
 10
38.5777
 20
-95.755
  0
VERTEX
  8
LAYER_1
 10
39.5772
 20
-97.4861
  0
SEQEND
  0
POLYLINE
  8
LAYER_1
 40
0.1764
 41
0.1764
 62
1
 66
1
 10
0
 20
0
 30
0
  0
VERTEX
  8
LAYER_1
 10
44.5745
 20
-106.1418
  0
VERTEX
  8
LAYER_1
 10
48.5414
 20
-99.2742
  0
SEQEND
  0
POLYLINE
  8
LAYER_1
 40
0.1764
 41
0.1764
 62
1
 66
1
 10
0
 20
0
 30
0
  0
VERTEX
  8
LAYER_1
 10
43.5751
 20
-104.4106
  0
VERTEX
  8
LAYER_1
 10
47.4075
 20
-97.7675
  0
SEQEND
  0
POLYLINE
  8
LAYER_1
 40
0.1764
 41
0.1764
 62
1
 66
1
 10
0
 20
0
 30
0
  0
VERTEX
  8
LAYER_1
 10
42.5756
 20
-102.6795
  0
VERTEX
  8
LAYER_1
 10
46.3705
 20
-96.1069
  0
SEQEND
  0
POLYLINE
  8
LAYER_1
 40
0.1764
 41
0.1764
 62
1
 66
1
 10
0
 20
0
 30
0
  0
VERTEX
  8
LAYER_1
 10
45.5775
 20
-94.0219
  0
VERTEX
  8
LAYER_1
 10
49.5753
 20
-100.9464
  0
SEQEND
  0
POLYLINE
  8
LAYER_1
 40
0.1764
 41
0.1764
 62
1
 66
1
 10
0
 20
0
 30
0
  0
VERTEX
  8
LAYER_1
 10
49.324
 20
-101.3751
  0
VERTEX
  8
LAYER_1
 10
49.5753
 20
-100.9464
  0
SEQEND
  0
POLYLINE
  8
LAYER_1
 40
0.1764
 41
0.1764
 62
1
 66
1
 10
0
 20
0
 30
0
  0
VERTEX
  8
LAYER_1
 10
47.4075
 20
-97.7675
  0
VERTEX
  8
LAYER_1
 10
47.5764
 20
-97.4841
  0
SEQEND
  0
POLYLINE
  8
LAYER_1
 40
0.1764
 41
0.1764
 62
1
 66
1
 10
0
 20
0
 30
0
  0
VERTEX
  8
LAYER_1
 10
46.3705
 20
-96.1069
  0
VERTEX
  8
LAYER_1
 10
46.5769
 20
-95.753
  0
SEQEND
  0
POLYLINE
  8
LAYER_1
 40
0.1764
 41
0.1764
 62
1
 66
1
 10
0
 20
0
 30
0
  0
VERTEX
  8
LAYER_1
 10
37.574
 20
-94.0165
  0
VERTEX
  8
LAYER_1
 10
45.5775
 20
-94.0219
  0
SEQEND
  0
POLYLINE
  8
LAYER_1
 40
0.1764
 41
0.1764
 62
1
 66
1
 10
0
 20
0
 30
0
  0
VERTEX
  8
LAYER_1
 10
41.5761
 20
-100.9484
  0
VERTEX
  8
LAYER_1
 10
45.5775
 20
-94.0219
  0
SEQEND
  0
POLYLINE
  8
LAYER_1
 40
0.1764
 41
0.1764
 62
1
 66
1
 10
0
 20
0
 30
0
  0
VERTEX
  8
LAYER_1
 10
40.5767
 20
-99.2173
  0
VERTEX
  8
LAYER_1
 10
42.5728
 20
-99.2189
  0
SEQEND
  0
POLYLINE
  8
LAYER_1
 40
0.1764
 41
0.1764
 62
1
 66
1
 10
0
 20
0
 30
0
  0
VERTEX
  8
LAYER_1
 10
39.5772
 20
-97.4861
  0
VERTEX
  8
LAYER_1
 10
43.5768
 20
-97.4851
  0
SEQEND
  0
POLYLINE
  8
LAYER_1
 40
0.1764
 41
0.1764
 62
1
 66
1
 10
0
 20
0
 30
0
  0
VERTEX
  8
LAYER_1
 10
38.5777
 20
-95.755
  0
VERTEX
  8
LAYER_1
 10
44.5735
 20
-95.7556
  0
SEQEND
  0
TEXT
  8
LAYER_1
 10
43.1619
 20
-99.2195
 11
43.1619
 21
-99.2195
 40
4.1737
 41
0.5
 50
299.999869
  1
B
  0
ENDBLK
  0
BLOCK
  8
LAYER_1
  2
AIGNBL01010014
 70
64
 10
0
 20
0
 30
0
  3
AIGNBL01010014
  0
INSERT
  8
LAYER_1
  2
AIGNBL01020015
 10
0
 20
0
 30
0
  0
TEXT
  8
LAYER_1
 10
44.3381
 20
-86.2043
 11
44.3381
 21
-86.2043
 40
4.1737
 41
0.5
 50
240.0001311
  1
A
  0
ENDBLK
  0
BLOCK
  8
LAYER_1
  2
AIGNBL01010016
 70
64
 10
0
 20
0
 30
0
  3
AIGNBL01010016
  0
POLYLINE
  8
LAYER_1
 40
0.1764
 41
0.1764
 62
1
 66
1
 10
0
 20
0
 30
0
  0
VERTEX
  8
LAYER_1
 10
37.4352
 20
-93.3962
  0
VERTEX
  8
LAYER_1
 10
45.4352
 20
-79.5399
  0
VERTEX
  8
LAYER_1
 10
37.9329
 20
-79.5411
  0
SEQEND
  0
POLYLINE
  8
LAYER_1
 40
0.1764
 41
0.1764
 62
1
 66
1
 10
0
 20
0
 30
0
  0
VERTEX
  8
LAYER_1
 10
44.4357
 20
-81.271
  0
VERTEX
  8
LAYER_1
 10
45.4352
 20
-79.5399
  0
SEQEND
  0
POLYLINE
  8
LAYER_1
 40
0.1764
 41
0.1764
 62
1
 66
1
 10
0
 20
0
 30
0
  0
VERTEX
  8
LAYER_1
 10
43.4363
 20
-83.0021
  0
VERTEX
  8
LAYER_1
 10
44.4357
 20
-81.271
  0
SEQEND
  0
POLYLINE
  8
LAYER_1
 40
0.1764
 41
0.1764
 62
1
 66
1
 10
0
 20
0
 30
0
  0
VERTEX
  8
LAYER_1
 10
42.4368
 20
-84.7332
  0
VERTEX
  8
LAYER_1
 10
43.4363
 20
-83.0021
  0
SEQEND
  0
POLYLINE
  8
LAYER_1
 40
0.1764
 41
0.1764
 62
1
 66
1
 10
0
 20
0
 30
0
  0
VERTEX
  8
LAYER_1
 10
41.4373
 20
-86.4644
  0
VERTEX
  8
LAYER_1
 10
42.4368
 20
-84.7332
  0
SEQEND
  0
POLYLINE
  8
LAYER_1
 40
0.1764
 41
0.1764
 62
1
 66
1
 10
0
 20
0
 30
0
  0
VERTEX
  8
LAYER_1
 10
40.4379
 20
-88.1955
  0
VERTEX
  8
LAYER_1
 10
41.4373
 20
-86.4644
  0
SEQEND
  0
POLYLINE
  8
LAYER_1
 40
0.1764
 41
0.1764
 62
1
 66
1
 10
0
 20
0
 30
0
  0
VERTEX
  8
LAYER_1
 10
39.4384
 20
-89.9266
  0
VERTEX
  8
LAYER_1
 10
40.4379
 20
-88.1955
  0
SEQEND
  0
POLYLINE
  8
LAYER_1
 40
0.1764
 41
0.1764
 62
1
 66
1
 10
0
 20
0
 30
0
  0
VERTEX
  8
LAYER_1
 10
38.4389
 20
-91.6577
  0
VERTEX
  8
LAYER_1
 10
39.4384
 20
-89.9266
  0
SEQEND
  0
POLYLINE
  8
LAYER_1
 40
0.1764
 41
0.1764
 62
1
 66
1
 10
0
 20
0
 30
0
  0
VERTEX
  8
LAYER_1
 10
44.4357
 20
-81.271
  0
VERTEX
  8
LAYER_1
 10
36.5048
 20
-81.2693
  0
SEQEND
  0
POLYLINE
  8
LAYER_1
 40
0.1764
 41
0.1764
 62
1
 66
1
 10
0
 20
0
 30
0
  0
VERTEX
  8
LAYER_1
 10
43.4363
 20
-83.0021
  0
VERTEX
  8
LAYER_1
 10
35.7669
 20
-83.0047
  0
SEQEND
  0
POLYLINE
  8
LAYER_1
 40
0.1764
 41
0.1764
 62
1
 66
1
 10
0
 20
0
 30
0
  0
VERTEX
  8
LAYER_1
 10
42.4368
 20
-84.7332
  0
VERTEX
  8
LAYER_1
 10
34.8473
 20
-84.733
  0
SEQEND
  0
POLYLINE
  8
LAYER_1
 40
0.1764
 41
0.1764
 62
1
 66
1
 10
0
 20
0
 30
0
  0
VERTEX
  8
LAYER_1
 10
33.4381
 20
-86.4623
  0
VERTEX
  8
LAYER_1
 10
37.436
 20
-79.5378
  0
SEQEND
  0
POLYLINE
  8
LAYER_1
 40
0.1764
 41
0.1764
 62
1
 66
1
 10
0
 20
0
 30
0
  0
VERTEX
  8
LAYER_1
 10
37.9329
 20
-79.5411
  0
VERTEX
  8
LAYER_1
 10
37.436
 20
-79.5378
  0
SEQEND
  0
POLYLINE
  8
LAYER_1
 40
0.1764
 41
0.1764
 62
1
 66
1
 10
0
 20
0
 30
0
  0
VERTEX
  8
LAYER_1
 10
35.7669
 20
-83.0047
  0
VERTEX
  8
LAYER_1
 10
35.4371
 20
-83.0001
  0
SEQEND
  0
POLYLINE
  8
LAYER_1
 40
0.1764
 41
0.1764
 62
1
 66
1
 10
0
 20
0
 30
0
  0
VERTEX
  8
LAYER_1
 10
34.8473
 20
-84.733
  0
VERTEX
  8
LAYER_1
 10
34.4376
 20
-84.7312
  0
SEQEND
  0
POLYLINE
  8
LAYER_1
 40
0.1764
 41
0.1764
 62
1
 66
1
 10
0
 20
0
 30
0
  0
VERTEX
  8
LAYER_1
 10
37.4352
 20
-93.3962
  0
VERTEX
  8
LAYER_1
 10
33.4381
 20
-86.4623
  0
SEQEND
  0
POLYLINE
  8
LAYER_1
 40
0.1764
 41
0.1764
 62
1
 66
1
 10
0
 20
0
 30
0
  0
VERTEX
  8
LAYER_1
 10
41.4373
 20
-86.4643
  0
VERTEX
  8
LAYER_1
 10
33.4381
 20
-86.4623
  0
SEQEND
  0
POLYLINE
  8
LAYER_1
 40
0.1764
 41
0.1764
 62
1
 66
1
 10
0
 20
0
 30
0
  0
VERTEX
  8
LAYER_1
 10
40.4379
 20
-88.1954
  0
VERTEX
  8
LAYER_1
 10
39.4412
 20
-86.4659
  0
SEQEND
  0
POLYLINE
  8
LAYER_1
 40
0.1764
 41
0.1764
 62
1
 66
1
 10
0
 20
0
 30
0
  0
VERTEX
  8
LAYER_1
 10
39.4384
 20
-89.9266
  0
VERTEX
  8
LAYER_1
 10
37.4377
 20
-86.4633
  0
SEQEND
  0
POLYLINE
  8
LAYER_1
 40
0.1764
 41
0.1764
 62
1
 66
1
 10
0
 20
0
 30
0
  0
VERTEX
  8
LAYER_1
 10
38.4389
 20
-91.6577
  0
VERTEX
  8
LAYER_1
 10
35.4416
 20
-86.4649
  0
SEQEND
  0
TEXT
  8
LAYER_1
 10
39.3438
 20
-85.9669
 11
39.3438
 21
-85.9669
 40
4.1737
 41
0.5
 50
60.00013103
  1
B
  0
ENDBLK
  0
BLOCK
  8
LAYER_1
  2
AIGNBL01010017
 70
64
 10
0
 20
0
 30
0
  3
AIGNBL01010017
  0
INSERT
  8
LAYER_1
  2
AIGNBL01020018
 10
0
 20
0
 30
0
  0
TEXT
  8
LAYER_1
 10
14.4492
 20
-113.3105
 11
14.4492
 21
-113.3105
 40
4.1737
 41
0.5
  1
A
  0
ENDBLK
  0
BLOCK
  8
LAYER_1
  2
AIGNBL01010019
 70
64
 10
0
 20
0
 30
0
  3
AIGNBL01010019
  0
POLYLINE
  8
LAYER_1
 40
0.1764
 41
0.1764
 62
1
 66
1
 10
0
 20
0
 30
0
  0
VERTEX
  8
LAYER_1
 10
24.1468
 20
-115.6973
  0
VERTEX
  8
LAYER_1
 10
8.1469
 20
-115.6973
  0
VERTEX
  8
LAYER_1
 10
11.8991
 20
-122.1939
  0
SEQEND
  0
POLYLINE
  8
LAYER_1
 40
0.1764
 41
0.1764
 62
1
 66
1
 10
0
 20
0
 30
0
  0
VERTEX
  8
LAYER_1
 10
10.1458
 20
-115.6973
  0
VERTEX
  8
LAYER_1
 10
8.1469
 20
-115.6973
  0
SEQEND
  0
POLYLINE
  8
LAYER_1
 40
0.1764
 41
0.1764
 62
1
 66
1
 10
0
 20
0
 30
0
  0
VERTEX
  8
LAYER_1
 10
12.1448
 20
-115.6973
  0
VERTEX
  8
LAYER_1
 10
10.1458
 20
-115.6973
  0
SEQEND
  0
POLYLINE
  8
LAYER_1
 40
0.1764
 41
0.1764
 62
1
 66
1
 10
0
 20
0
 30
0
  0
VERTEX
  8
LAYER_1
 10
14.1437
 20
-115.6973
  0
VERTEX
  8
LAYER_1
 10
12.1448
 20
-115.6973
  0
SEQEND
  0
POLYLINE
  8
LAYER_1
 40
0.1764
 41
0.1764
 62
1
 66
1
 10
0
 20
0
 30
0
  0
VERTEX
  8
LAYER_1
 10
16.1426
 20
-115.6973
  0
VERTEX
  8
LAYER_1
 10
14.1437
 20
-115.6973
  0
SEQEND
  0
POLYLINE
  8
LAYER_1
 40
0.1764
 41
0.1764
 62
1
 66
1
 10
0
 20
0
 30
0
  0
VERTEX
  8
LAYER_1
 10
18.1415
 20
-115.6973
  0
VERTEX
  8
LAYER_1
 10
16.1426
 20
-115.6973
  0
SEQEND
  0
POLYLINE
  8
LAYER_1
 40
0.1764
 41
0.1764
 62
1
 66
1
 10
0
 20
0
 30
0
  0
VERTEX
  8
LAYER_1
 10
20.1405
 20
-115.6973
  0
VERTEX
  8
LAYER_1
 10
18.1415
 20
-115.6973
  0
SEQEND
  0
POLYLINE
  8
LAYER_1
 40
0.1764
 41
0.1764
 62
1
 66
1
 10
0
 20
0
 30
0
  0
VERTEX
  8
LAYER_1
 10
22.1394
 20
-115.6973
  0
VERTEX
  8
LAYER_1
 10
20.1405
 20
-115.6973
  0
SEQEND
  0
POLYLINE
  8
LAYER_1
 40
0.1764
 41
0.1764
 62
1
 66
1
 10
0
 20
0
 30
0
  0
VERTEX
  8
LAYER_1
 10
10.1458
 20
-115.6973
  0
VERTEX
  8
LAYER_1
 10
14.1098
 20
-122.5665
  0
SEQEND
  0
POLYLINE
  8
LAYER_1
 40
0.1764
 41
0.1764
 62
1
 66
1
 10
0
 20
0
 30
0
  0
VERTEX
  8
LAYER_1
 10
12.1447
 20
-115.6973
  0
VERTEX
  8
LAYER_1
 10
15.9817
 20
-122.3379
  0
SEQEND
  0
POLYLINE
  8
LAYER_1
 40
0.1764
 41
0.1764
 62
1
 66
1
 10
0
 20
0
 30
0
  0
VERTEX
  8
LAYER_1
 10
14.1437
 20
-115.6973
  0
VERTEX
  8
LAYER_1
 10
17.9382
 20
-122.2701
  0
SEQEND
  0
POLYLINE
  8
LAYER_1
 40
0.1764
 41
0.1764
 62
1
 66
1
 10
0
 20
0
 30
0
  0
VERTEX
  8
LAYER_1
 10
20.1405
 20
-122.6258
  0
VERTEX
  8
LAYER_1
 10
12.1447
 20
-122.6258
  0
SEQEND
  0
POLYLINE
  8
LAYER_1
 40
0.1764
 41
0.1764
 62
1
 66
1
 10
0
 20
0
 30
0
  0
VERTEX
  8
LAYER_1
 10
11.8991
 20
-122.1939
  0
VERTEX
  8
LAYER_1
 10
12.1447
 20
-122.6258
  0
SEQEND
  0
POLYLINE
  8
LAYER_1
 40
0.1764
 41
0.1764
 62
1
 66
1
 10
0
 20
0
 30
0
  0
VERTEX
  8
LAYER_1
 10
15.9817
 20
-122.3379
  0
VERTEX
  8
LAYER_1
 10
16.1426
 20
-122.6258
  0
SEQEND
  0
POLYLINE
  8
LAYER_1
 40
0.1764
 41
0.1764
 62
1
 66
1
 10
0
 20
0
 30
0
  0
VERTEX
  8
LAYER_1
 10
17.9382
 20
-122.2701
  0
VERTEX
  8
LAYER_1
 10
18.1415
 20
-122.6258
  0
SEQEND
  0
POLYLINE
  8
LAYER_1
 40
0.1764
 41
0.1764
 62
1
 66
1
 10
0
 20
0
 30
0
  0
VERTEX
  8
LAYER_1
 10
24.1468
 20
-115.6973
  0
VERTEX
  8
LAYER_1
 10
20.1404
 20
-122.6258
  0
SEQEND
  0
POLYLINE
  8
LAYER_1
 40
0.1764
 41
0.1764
 62
1
 66
1
 10
0
 20
0
 30
0
  0
VERTEX
  8
LAYER_1
 10
16.1426
 20
-115.6973
  0
VERTEX
  8
LAYER_1
 10
20.1404
 20
-122.6258
  0
SEQEND
  0
POLYLINE
  8
LAYER_1
 40
0.1764
 41
0.1764
 62
1
 66
1
 10
0
 20
0
 30
0
  0
VERTEX
  8
LAYER_1
 10
18.1415
 20
-115.6973
  0
VERTEX
  8
LAYER_1
 10
17.142
 20
-117.4252
  0
SEQEND
  0
POLYLINE
  8
LAYER_1
 40
0.1764
 41
0.1764
 62
1
 66
1
 10
0
 20
0
 30
0
  0
VERTEX
  8
LAYER_1
 10
20.1404
 20
-115.6973
  0
VERTEX
  8
LAYER_1
 10
18.1415
 20
-119.1616
  0
SEQEND
  0
POLYLINE
  8
LAYER_1
 40
0.1764
 41
0.1764
 62
1
 66
1
 10
0
 20
0
 30
0
  0
VERTEX
  8
LAYER_1
 10
22.1394
 20
-115.6973
  0
VERTEX
  8
LAYER_1
 10
19.141
 20
-120.8895
  0
SEQEND
  0
TEXT
  8
LAYER_1
 10
16.955
 20
-117.5739
 11
16.955
 21
-117.5739
 40
4.1737
 41
0.5
 50
180
  1
B
  0
ENDBLK
  0
BLOCK
  8
LAYER_1
  2
AIGNBL0101001A
 70
64
 10
0
 20
0
 30
0
  3
AIGNBL0101001A
  0
INSERT
  8
LAYER_1
  2
AIGNBL0102001B
 10
0
 20
0
 30
0
  0
TEXT
  8
LAYER_1
 10
27.6306
 20
-125.5005
 11
27.6306
 21
-125.5005
 40
4.1737
 41
0.5
 50
119.9998689
  1
A
  0
ENDBLK
  0
BLOCK
  8
LAYER_1
  2
AIGNBL0101001C
 70
64
 10
0
 20
0
 30
0
  3
AIGNBL0101001C
  0
POLYLINE
  8
LAYER_1
 40
0.1764
 41
0.1764
 62
1
 66
1
 10
0
 20
0
 30
0
  0
VERTEX
  8
LAYER_1
 10
24.8352
 20
-115.921
  0
VERTEX
  8
LAYER_1
 10
32.8352
 20
-129.7774
  0
VERTEX
  8
LAYER_1
 10
36.5852
 20
-123.2796
  0
SEQEND
  0
POLYLINE
  8
LAYER_1
 40
0.1764
 41
0.1764
 62
1
 66
1
 10
0
 20
0
 30
0
  0
VERTEX
  8
LAYER_1
 10
31.8357
 20
-128.0463
  0
VERTEX
  8
LAYER_1
 10
32.8352
 20
-129.7774
  0
SEQEND
  0
POLYLINE
  8
LAYER_1
 40
0.1764
 41
0.1764
 62
1
 66
1
 10
0
 20
0
 30
0
  0
VERTEX
  8
LAYER_1
 10
30.8362
 20
-126.3151
  0
VERTEX
  8
LAYER_1
 10
31.8357
 20
-128.0463
  0
SEQEND
  0
POLYLINE
  8
LAYER_1
 40
0.1764
 41
0.1764
 62
1
 66
1
 10
0
 20
0
 30
0
  0
VERTEX
  8
LAYER_1
 10
29.8368
 20
-124.584
  0
VERTEX
  8
LAYER_1
 10
30.8362
 20
-126.3151
  0
SEQEND
  0
POLYLINE
  8
LAYER_1
 40
0.1764
 41
0.1764
 62
1
 66
1
 10
0
 20
0
 30
0
  0
VERTEX
  8
LAYER_1
 10
28.8373
 20
-122.8529
  0
VERTEX
  8
LAYER_1
 10
29.8368
 20
-124.584
  0
SEQEND
  0
POLYLINE
  8
LAYER_1
 40
0.1764
 41
0.1764
 62
1
 66
1
 10
0
 20
0
 30
0
  0
VERTEX
  8
LAYER_1
 10
27.8378
 20
-121.1218
  0
VERTEX
  8
LAYER_1
 10
28.8373
 20
-122.8529
  0
SEQEND
  0
POLYLINE
  8
LAYER_1
 40
0.1764
 41
0.1764
 62
1
 66
1
 10
0
 20
0
 30
0
  0
VERTEX
  8
LAYER_1
 10
26.8384
 20
-119.3907
  0
VERTEX
  8
LAYER_1
 10
27.8378
 20
-121.1218
  0
SEQEND
  0
POLYLINE
  8
LAYER_1
 40
0.1764
 41
0.1764
 62
1
 66
1
 10
0
 20
0
 30
0
  0
VERTEX
  8
LAYER_1
 10
25.8389
 20
-117.6595
  0
VERTEX
  8
LAYER_1
 10
26.8384
 20
-119.3907
  0
SEQEND
  0
POLYLINE
  8
LAYER_1
 40
0.1764
 41
0.1764
 62
1
 66
1
 10
0
 20
0
 30
0
  0
VERTEX
  8
LAYER_1
 10
31.8357
 20
-128.0463
  0
VERTEX
  8
LAYER_1
 10
35.8026
 20
-121.1788
  0
SEQEND
  0
POLYLINE
  8
LAYER_1
 40
0.1764
 41
0.1764
 62
1
 66
1
 10
0
 20
0
 30
0
  0
VERTEX
  8
LAYER_1
 10
30.8362
 20
-126.3152
  0
VERTEX
  8
LAYER_1
 10
34.6686
 20
-119.672
  0
SEQEND
  0
POLYLINE
  8
LAYER_1
 40
0.1764
 41
0.1764
 62
1
 66
1
 10
0
 20
0
 30
0
  0
VERTEX
  8
LAYER_1
 10
29.8368
 20
-124.584
  0
VERTEX
  8
LAYER_1
 10
33.6317
 20
-118.0115
  0
SEQEND
  0
POLYLINE
  8
LAYER_1
 40
0.1764
 41
0.1764
 62
1
 66
1
 10
0
 20
0
 30
0
  0
VERTEX
  8
LAYER_1
 10
32.8386
 20
-115.9264
  0
VERTEX
  8
LAYER_1
 10
36.8365
 20
-122.8509
  0
SEQEND
  0
POLYLINE
  8
LAYER_1
 40
0.1764
 41
0.1764
 62
1
 66
1
 10
0
 20
0
 30
0
  0
VERTEX
  8
LAYER_1
 10
36.5852
 20
-123.2796
  0
VERTEX
  8
LAYER_1
 10
36.8365
 20
-122.8509
  0
SEQEND
  0
POLYLINE
  8
LAYER_1
 40
0.1764
 41
0.1764
 62
1
 66
1
 10
0
 20
0
 30
0
  0
VERTEX
  8
LAYER_1
 10
34.6686
 20
-119.672
  0
VERTEX
  8
LAYER_1
 10
34.8376
 20
-119.3887
  0
SEQEND
  0
POLYLINE
  8
LAYER_1
 40
0.1764
 41
0.1764
 62
1
 66
1
 10
0
 20
0
 30
0
  0
VERTEX
  8
LAYER_1
 10
33.6317
 20
-118.0115
  0
VERTEX
  8
LAYER_1
 10
33.8381
 20
-117.6575
  0
SEQEND
  0
POLYLINE
  8
LAYER_1
 40
0.1764
 41
0.1764
 62
1
 66
1
 10
0
 20
0
 30
0
  0
VERTEX
  8
LAYER_1
 10
24.8352
 20
-115.9211
  0
VERTEX
  8
LAYER_1
 10
32.8387
 20
-115.9264
  0
SEQEND
  0
POLYLINE
  8
LAYER_1
 40
0.1764
 41
0.1764
 62
1
 66
1
 10
0
 20
0
 30
0
  0
VERTEX
  8
LAYER_1
 10
28.8373
 20
-122.8529
  0
VERTEX
  8
LAYER_1
 10
32.8387
 20
-115.9264
  0
SEQEND
  0
POLYLINE
  8
LAYER_1
 40
0.1764
 41
0.1764
 62
1
 66
1
 10
0
 20
0
 30
0
  0
VERTEX
  8
LAYER_1
 10
27.8379
 20
-121.1218
  0
VERTEX
  8
LAYER_1
 10
29.834
 20
-121.1234
  0
SEQEND
  0
POLYLINE
  8
LAYER_1
 40
0.1764
 41
0.1764
 62
1
 66
1
 10
0
 20
0
 30
0
  0
VERTEX
  8
LAYER_1
 10
26.8384
 20
-119.3907
  0
VERTEX
  8
LAYER_1
 10
30.838
 20
-119.3897
  0
SEQEND
  0
POLYLINE
  8
LAYER_1
 40
0.1764
 41
0.1764
 62
1
 66
1
 10
0
 20
0
 30
0
  0
VERTEX
  8
LAYER_1
 10
25.8389
 20
-117.6596
  0
VERTEX
  8
LAYER_1
 10
31.8347
 20
-117.6602
  0
SEQEND
  0
TEXT
  8
LAYER_1
 10
30.423
 20
-121.124
 11
30.423
 21
-121.124
 40
4.1737
 41
0.5
 50
299.999869
  1
B
  0
ENDBLK
  0
BLOCK
  8
LAYER_1
  2
AIGNBL0101001D
 70
64
 10
0
 20
0
 30
0
  3
AIGNBL0101001D
  0
INSERT
  8
LAYER_1
  2
AIGNBL0102001E
 10
0
 20
0
 30
0
  0
TEXT
  8
LAYER_1
 10
31.5995
 20
-108.1089
 11
31.5995
 21
-108.1089
 40
4.1737
 41
0.5
 50
240.0001311
  1
A
  0
ENDBLK
  0
BLOCK
  8
LAYER_1
  2
AIGNBL0101001F
 70
64
 10
0
 20
0
 30
0
  3
AIGNBL0101001F
  0
POLYLINE
  8
LAYER_1
 40
0.1764
 41
0.1764
 62
1
 66
1
 10
0
 20
0
 30
0
  0
VERTEX
  8
LAYER_1
 10
24.6964
 20
-115.3007
  0
VERTEX
  8
LAYER_1
 10
32.6964
 20
-101.4444
  0
VERTEX
  8
LAYER_1
 10
25.1941
 20
-101.4457
  0
SEQEND
  0
POLYLINE
  8
LAYER_1
 40
0.1764
 41
0.1764
 62
1
 66
1
 10
0
 20
0
 30
0
  0
VERTEX
  8
LAYER_1
 10
31.6969
 20
-103.1755
  0
VERTEX
  8
LAYER_1
 10
32.6964
 20
-101.4444
  0
SEQEND
  0
POLYLINE
  8
LAYER_1
 40
0.1764
 41
0.1764
 62
1
 66
1
 10
0
 20
0
 30
0
  0
VERTEX
  8
LAYER_1
 10
30.6974
 20
-104.9067
  0
VERTEX
  8
LAYER_1
 10
31.6969
 20
-103.1755
  0
SEQEND
  0
POLYLINE
  8
LAYER_1
 40
0.1764
 41
0.1764
 62
1
 66
1
 10
0
 20
0
 30
0
  0
VERTEX
  8
LAYER_1
 10
29.698
 20
-106.6378
  0
VERTEX
  8
LAYER_1
 10
30.6974
 20
-104.9067
  0
SEQEND
  0
POLYLINE
  8
LAYER_1
 40
0.1764
 41
0.1764
 62
1
 66
1
 10
0
 20
0
 30
0
  0
VERTEX
  8
LAYER_1
 10
28.6985
 20
-108.3689
  0
VERTEX
  8
LAYER_1
 10
29.698
 20
-106.6378
  0
SEQEND
  0
POLYLINE
  8
LAYER_1
 40
0.1764
 41
0.1764
 62
1
 66
1
 10
0
 20
0
 30
0
  0
VERTEX
  8
LAYER_1
 10
27.699
 20
-110.1
  0
VERTEX
  8
LAYER_1
 10
28.6985
 20
-108.3689
  0
SEQEND
  0
POLYLINE
  8
LAYER_1
 40
0.1764
 41
0.1764
 62
1
 66
1
 10
0
 20
0
 30
0
  0
VERTEX
  8
LAYER_1
 10
26.6996
 20
-111.8311
  0
VERTEX
  8
LAYER_1
 10
27.699
 20
-110.1
  0
SEQEND
  0
POLYLINE
  8
LAYER_1
 40
0.1764
 41
0.1764
 62
1
 66
1
 10
0
 20
0
 30
0
  0
VERTEX
  8
LAYER_1
 10
25.7001
 20
-113.5623
  0
VERTEX
  8
LAYER_1
 10
26.6996
 20
-111.8311
  0
SEQEND
  0
POLYLINE
  8
LAYER_1
 40
0.1764
 41
0.1764
 62
1
 66
1
 10
0
 20
0
 30
0
  0
VERTEX
  8
LAYER_1
 10
31.6969
 20
-103.1755
  0
VERTEX
  8
LAYER_1
 10
23.766
 20
-103.1738
  0
SEQEND
  0
POLYLINE
  8
LAYER_1
 40
0.1764
 41
0.1764
 62
1
 66
1
 10
0
 20
0
 30
0
  0
VERTEX
  8
LAYER_1
 10
30.6975
 20
-104.9066
  0
VERTEX
  8
LAYER_1
 10
23.0281
 20
-104.9092
  0
SEQEND
  0
POLYLINE
  8
LAYER_1
 40
0.1764
 41
0.1764
 62
1
 66
1
 10
0
 20
0
 30
0
  0
VERTEX
  8
LAYER_1
 10
29.698
 20
-106.6378
  0
VERTEX
  8
LAYER_1
 10
22.1085
 20
-106.6376
  0
SEQEND
  0
POLYLINE
  8
LAYER_1
 40
0.1764
 41
0.1764
 62
1
 66
1
 10
0
 20
0
 30
0
  0
VERTEX
  8
LAYER_1
 10
20.6993
 20
-108.3669
  0
VERTEX
  8
LAYER_1
 10
24.6972
 20
-101.4424
  0
SEQEND
  0
POLYLINE
  8
LAYER_1
 40
0.1764
 41
0.1764
 62
1
 66
1
 10
0
 20
0
 30
0
  0
VERTEX
  8
LAYER_1
 10
25.1941
 20
-101.4456
  0
VERTEX
  8
LAYER_1
 10
24.6972
 20
-101.4424
  0
SEQEND
  0
POLYLINE
  8
LAYER_1
 40
0.1764
 41
0.1764
 62
1
 66
1
 10
0
 20
0
 30
0
  0
VERTEX
  8
LAYER_1
 10
23.0281
 20
-104.9092
  0
VERTEX
  8
LAYER_1
 10
22.6983
 20
-104.9046
  0
SEQEND
  0
POLYLINE
  8
LAYER_1
 40
0.1764
 41
0.1764
 62
1
 66
1
 10
0
 20
0
 30
0
  0
VERTEX
  8
LAYER_1
 10
22.1085
 20
-106.6376
  0
VERTEX
  8
LAYER_1
 10
21.6988
 20
-106.6357
  0
SEQEND
  0
POLYLINE
  8
LAYER_1
 40
0.1764
 41
0.1764
 62
1
 66
1
 10
0
 20
0
 30
0
  0
VERTEX
  8
LAYER_1
 10
24.6964
 20
-115.3007
  0
VERTEX
  8
LAYER_1
 10
20.6993
 20
-108.3669
  0
SEQEND
  0
POLYLINE
  8
LAYER_1
 40
0.1764
 41
0.1764
 62
1
 66
1
 10
0
 20
0
 30
0
  0
VERTEX
  8
LAYER_1
 10
28.6985
 20
-108.3689
  0
VERTEX
  8
LAYER_1
 10
20.6993
 20
-108.3669
  0
SEQEND
  0
POLYLINE
  8
LAYER_1
 40
0.1764
 41
0.1764
 62
1
 66
1
 10
0
 20
0
 30
0
  0
VERTEX
  8
LAYER_1
 10
27.6991
 20
-110.1
  0
VERTEX
  8
LAYER_1
 10
26.7024
 20
-108.3705
  0
SEQEND
  0
POLYLINE
  8
LAYER_1
 40
0.1764
 41
0.1764
 62
1
 66
1
 10
0
 20
0
 30
0
  0
VERTEX
  8
LAYER_1
 10
26.6996
 20
-111.8311
  0
VERTEX
  8
LAYER_1
 10
24.6989
 20
-108.3679
  0
SEQEND
  0
POLYLINE
  8
LAYER_1
 40
0.1764
 41
0.1764
 62
1
 66
1
 10
0
 20
0
 30
0
  0
VERTEX
  8
LAYER_1
 10
25.7001
 20
-113.5622
  0
VERTEX
  8
LAYER_1
 10
22.7028
 20
-108.3695
  0
SEQEND
  0
TEXT
  8
LAYER_1
 10
26.605
 20
-107.8715
 11
26.605
 21
-107.8715
 40
4.1737
 41
0.5
 50
60.00013103
  1
B
  0
ENDBLK
  0
BLOCK
  8
LAYER_1
  2
AIGNBL01010020
 70
64
 10
0
 20
0
 30
0
  3
AIGNBL01010020
  0
INSERT
  8
LAYER_1
  2
AIGNBL01020021
 10
0
 20
0
 30
0
  0
TEXT
  8
LAYER_1
 10
40.0268
 20
-113.6212
 11
40.0268
 21
-113.6212
 40
4.1737
 41
0.5
  1
A
  0
ENDBLK
  0
BLOCK
  8
LAYER_1
  2
AIGNBL01010022
 70
64
 10
0
 20
0
 30
0
  3
AIGNBL01010022
  0
POLYLINE
  8
LAYER_1
 40
0.1764
 41
0.1764
 62
1
 66
1
 10
0
 20
0
 30
0
  0
VERTEX
  8
LAYER_1
 10
49.7245
 20
-116.008
  0
VERTEX
  8
LAYER_1
 10
33.7245
 20
-116.008
  0
VERTEX
  8
LAYER_1
 10
37.4767
 20
-122.5046
  0
SEQEND
  0
POLYLINE
  8
LAYER_1
 40
0.1764
 41
0.1764
 62
1
 66
1
 10
0
 20
0
 30
0
  0
VERTEX
  8
LAYER_1
 10
35.7234
 20
-116.008
  0
VERTEX
  8
LAYER_1
 10
33.7245
 20
-116.008
  0
SEQEND
  0
POLYLINE
  8
LAYER_1
 40
0.1764
 41
0.1764
 62
1
 66
1
 10
0
 20
0
 30
0
  0
VERTEX
  8
LAYER_1
 10
37.7224
 20
-116.008
  0
VERTEX
  8
LAYER_1
 10
35.7234
 20
-116.008
  0
SEQEND
  0
POLYLINE
  8
LAYER_1
 40
0.1764
 41
0.1764
 62
1
 66
1
 10
0
 20
0
 30
0
  0
VERTEX
  8
LAYER_1
 10
39.7213
 20
-116.008
  0
VERTEX
  8
LAYER_1
 10
37.7224
 20
-116.008
  0
SEQEND
  0
POLYLINE
  8
LAYER_1
 40
0.1764
 41
0.1764
 62
1
 66
1
 10
0
 20
0
 30
0
  0
VERTEX
  8
LAYER_1
 10
41.7202
 20
-116.008
  0
VERTEX
  8
LAYER_1
 10
39.7213
 20
-116.008
  0
SEQEND
  0
POLYLINE
  8
LAYER_1
 40
0.1764
 41
0.1764
 62
1
 66
1
 10
0
 20
0
 30
0
  0
VERTEX
  8
LAYER_1
 10
43.7192
 20
-116.008
  0
VERTEX
  8
LAYER_1
 10
41.7202
 20
-116.008
  0
SEQEND
  0
POLYLINE
  8
LAYER_1
 40
0.1764
 41
0.1764
 62
1
 66
1
 10
0
 20
0
 30
0
  0
VERTEX
  8
LAYER_1
 10
45.7181
 20
-116.008
  0
VERTEX
  8
LAYER_1
 10
43.7192
 20
-116.008
  0
SEQEND
  0
POLYLINE
  8
LAYER_1
 40
0.1764
 41
0.1764
 62
1
 66
1
 10
0
 20
0
 30
0
  0
VERTEX
  8
LAYER_1
 10
47.717
 20
-116.008
  0
VERTEX
  8
LAYER_1
 10
45.7181
 20
-116.008
  0
SEQEND
  0
POLYLINE
  8
LAYER_1
 40
0.1764
 41
0.1764
 62
1
 66
1
 10
0
 20
0
 30
0
  0
VERTEX
  8
LAYER_1
 10
35.7234
 20
-116.008
  0
VERTEX
  8
LAYER_1
 10
39.6874
 20
-122.8772
  0
SEQEND
  0
POLYLINE
  8
LAYER_1
 40
0.1764
 41
0.1764
 62
1
 66
1
 10
0
 20
0
 30
0
  0
VERTEX
  8
LAYER_1
 10
37.7224
 20
-116.008
  0
VERTEX
  8
LAYER_1
 10
41.5593
 20
-122.6486
  0
SEQEND
  0
POLYLINE
  8
LAYER_1
 40
0.1764
 41
0.1764
 62
1
 66
1
 10
0
 20
0
 30
0
  0
VERTEX
  8
LAYER_1
 10
39.7213
 20
-116.008
  0
VERTEX
  8
LAYER_1
 10
43.5159
 20
-122.5808
  0
SEQEND
  0
POLYLINE
  8
LAYER_1
 40
0.1764
 41
0.1764
 62
1
 66
1
 10
0
 20
0
 30
0
  0
VERTEX
  8
LAYER_1
 10
45.7181
 20
-122.9365
  0
VERTEX
  8
LAYER_1
 10
37.7223
 20
-122.9365
  0
SEQEND
  0
POLYLINE
  8
LAYER_1
 40
0.1764
 41
0.1764
 62
1
 66
1
 10
0
 20
0
 30
0
  0
VERTEX
  8
LAYER_1
 10
37.4767
 20
-122.5046
  0
VERTEX
  8
LAYER_1
 10
37.7223
 20
-122.9365
  0
SEQEND
  0
POLYLINE
  8
LAYER_1
 40
0.1764
 41
0.1764
 62
1
 66
1
 10
0
 20
0
 30
0
  0
VERTEX
  8
LAYER_1
 10
41.5593
 20
-122.6486
  0
VERTEX
  8
LAYER_1
 10
41.7202
 20
-122.9365
  0
SEQEND
  0
POLYLINE
  8
LAYER_1
 40
0.1764
 41
0.1764
 62
1
 66
1
 10
0
 20
0
 30
0
  0
VERTEX
  8
LAYER_1
 10
43.5159
 20
-122.5808
  0
VERTEX
  8
LAYER_1
 10
43.7191
 20
-122.9365
  0
SEQEND
  0
POLYLINE
  8
LAYER_1
 40
0.1764
 41
0.1764
 62
1
 66
1
 10
0
 20
0
 30
0
  0
VERTEX
  8
LAYER_1
 10
49.7244
 20
-116.008
  0
VERTEX
  8
LAYER_1
 10
45.7181
 20
-122.9365
  0
SEQEND
  0
POLYLINE
  8
LAYER_1
 40
0.1764
 41
0.1764
 62
1
 66
1
 10
0
 20
0
 30
0
  0
VERTEX
  8
LAYER_1
 10
41.7202
 20
-116.008
  0
VERTEX
  8
LAYER_1
 10
45.7181
 20
-122.9365
  0
SEQEND
  0
POLYLINE
  8
LAYER_1
 40
0.1764
 41
0.1764
 62
1
 66
1
 10
0
 20
0
 30
0
  0
VERTEX
  8
LAYER_1
 10
43.7191
 20
-116.008
  0
VERTEX
  8
LAYER_1
 10
42.7197
 20
-117.7359
  0
SEQEND
  0
POLYLINE
  8
LAYER_1
 40
0.1764
 41
0.1764
 62
1
 66
1
 10
0
 20
0
 30
0
  0
VERTEX
  8
LAYER_1
 10
45.7181
 20
-116.008
  0
VERTEX
  8
LAYER_1
 10
43.7191
 20
-119.4723
  0
SEQEND
  0
POLYLINE
  8
LAYER_1
 40
0.1764
 41
0.1764
 62
1
 66
1
 10
0
 20
0
 30
0
  0
VERTEX
  8
LAYER_1
 10
47.717
 20
-116.008
  0
VERTEX
  8
LAYER_1
 10
44.7186
 20
-121.2002
  0
SEQEND
  0
TEXT
  8
LAYER_1
 10
42.5328
 20
-117.8846
 11
42.5328
 21
-117.8846
 40
4.1737
 41
0.5
 50
180
  1
B
  0
ENDBLK
  0
BLOCK
  8
LAYER_1
  2
AIGNBL01010023
 70
64
 10
0
 20
0
 30
0
  3
AIGNBL01010023
  0
INSERT
  8
LAYER_1
  2
AIGNBL01020024
 10
0
 20
0
 30
0
  0
TEXT
  8
LAYER_1
 10
53.2082
 20
-125.8112
 11
53.2082
 21
-125.8112
 40
4.1737
 41
0.5
 50
119.9998689
  1
A
  0
ENDBLK
  0
BLOCK
  8
LAYER_1
  2
AIGNBL01010025
 70
64
 10
0
 20
0
 30
0
  3
AIGNBL01010025
  0
POLYLINE
  8
LAYER_1
 40
0.1764
 41
0.1764
 62
1
 66
1
 10
0
 20
0
 30
0
  0
VERTEX
  8
LAYER_1
 10
50.4128
 20
-116.2318
  0
VERTEX
  8
LAYER_1
 10
58.4128
 20
-130.0881
  0
VERTEX
  8
LAYER_1
 10
62.1628
 20
-123.5903
  0
SEQEND
  0
POLYLINE
  8
LAYER_1
 40
0.1764
 41
0.1764
 62
1
 66
1
 10
0
 20
0
 30
0
  0
VERTEX
  8
LAYER_1
 10
57.4133
 20
-128.357
  0
VERTEX
  8
LAYER_1
 10
58.4128
 20
-130.0881
  0
SEQEND
  0
POLYLINE
  8
LAYER_1
 40
0.1764
 41
0.1764
 62
1
 66
1
 10
0
 20
0
 30
0
  0
VERTEX
  8
LAYER_1
 10
56.4139
 20
-126.6259
  0
VERTEX
  8
LAYER_1
 10
57.4133
 20
-128.357
  0
SEQEND
  0
POLYLINE
  8
LAYER_1
 40
0.1764
 41
0.1764
 62
1
 66
1
 10
0
 20
0
 30
0
  0
VERTEX
  8
LAYER_1
 10
55.4144
 20
-124.8947
  0
VERTEX
  8
LAYER_1
 10
56.4139
 20
-126.6259
  0
SEQEND
  0
POLYLINE
  8
LAYER_1
 40
0.1764
 41
0.1764
 62
1
 66
1
 10
0
 20
0
 30
0
  0
VERTEX
  8
LAYER_1
 10
54.4149
 20
-123.1636
  0
VERTEX
  8
LAYER_1
 10
55.4144
 20
-124.8947
  0
SEQEND
  0
POLYLINE
  8
LAYER_1
 40
0.1764
 41
0.1764
 62
1
 66
1
 10
0
 20
0
 30
0
  0
VERTEX
  8
LAYER_1
 10
53.4155
 20
-121.4325
  0
VERTEX
  8
LAYER_1
 10
54.4149
 20
-123.1636
  0
SEQEND
  0
POLYLINE
  8
LAYER_1
 40
0.1764
 41
0.1764
 62
1
 66
1
 10
0
 20
0
 30
0
  0
VERTEX
  8
LAYER_1
 10
52.416
 20
-119.7014
  0
VERTEX
  8
LAYER_1
 10
53.4155
 20
-121.4325
  0
SEQEND
  0
POLYLINE
  8
LAYER_1
 40
0.1764
 41
0.1764
 62
1
 66
1
 10
0
 20
0
 30
0
  0
VERTEX
  8
LAYER_1
 10
51.4165
 20
-117.9702
  0
VERTEX
  8
LAYER_1
 10
52.416
 20
-119.7014
  0
SEQEND
  0
POLYLINE
  8
LAYER_1
 40
0.1764
 41
0.1764
 62
1
 66
1
 10
0
 20
0
 30
0
  0
VERTEX
  8
LAYER_1
 10
57.4133
 20
-128.357
  0
VERTEX
  8
LAYER_1
 10
61.3803
 20
-121.4895
  0
SEQEND
  0
POLYLINE
  8
LAYER_1
 40
0.1764
 41
0.1764
 62
1
 66
1
 10
0
 20
0
 30
0
  0
VERTEX
  8
LAYER_1
 10
56.4139
 20
-126.6259
  0
VERTEX
  8
LAYER_1
 10
60.2463
 20
-119.9827
  0
SEQEND
  0
POLYLINE
  8
LAYER_1
 40
0.1764
 41
0.1764
 62
1
 66
1
 10
0
 20
0
 30
0
  0
VERTEX
  8
LAYER_1
 10
55.4144
 20
-124.8948
  0
VERTEX
  8
LAYER_1
 10
59.2093
 20
-118.3222
  0
SEQEND
  0
POLYLINE
  8
LAYER_1
 40
0.1764
 41
0.1764
 62
1
 66
1
 10
0
 20
0
 30
0
  0
VERTEX
  8
LAYER_1
 10
58.4163
 20
-116.2371
  0
VERTEX
  8
LAYER_1
 10
62.4141
 20
-123.1616
  0
SEQEND
  0
POLYLINE
  8
LAYER_1
 40
0.1764
 41
0.1764
 62
1
 66
1
 10
0
 20
0
 30
0
  0
VERTEX
  8
LAYER_1
 10
62.1629
 20
-123.5903
  0
VERTEX
  8
LAYER_1
 10
62.4141
 20
-123.1616
  0
SEQEND
  0
POLYLINE
  8
LAYER_1
 40
0.1764
 41
0.1764
 62
1
 66
1
 10
0
 20
0
 30
0
  0
VERTEX
  8
LAYER_1
 10
60.2463
 20
-119.9827
  0
VERTEX
  8
LAYER_1
 10
60.4152
 20
-119.6994
  0
SEQEND
  0
POLYLINE
  8
LAYER_1
 40
0.1764
 41
0.1764
 62
1
 66
1
 10
0
 20
0
 30
0
  0
VERTEX
  8
LAYER_1
 10
59.2093
 20
-118.3222
  0
VERTEX
  8
LAYER_1
 10
59.4157
 20
-117.9683
  0
SEQEND
  0
POLYLINE
  8
LAYER_1
 40
0.1764
 41
0.1764
 62
1
 66
1
 10
0
 20
0
 30
0
  0
VERTEX
  8
LAYER_1
 10
50.4128
 20
-116.2318
  0
VERTEX
  8
LAYER_1
 10
58.4163
 20
-116.2371
  0
SEQEND
  0
POLYLINE
  8
LAYER_1
 40
0.1764
 41
0.1764
 62
1
 66
1
 10
0
 20
0
 30
0
  0
VERTEX
  8
LAYER_1
 10
54.4149
 20
-123.1636
  0
VERTEX
  8
LAYER_1
 10
58.4163
 20
-116.2371
  0
SEQEND
  0
POLYLINE
  8
LAYER_1
 40
0.1764
 41
0.1764
 62
1
 66
1
 10
0
 20
0
 30
0
  0
VERTEX
  8
LAYER_1
 10
53.4155
 20
-121.4325
  0
VERTEX
  8
LAYER_1
 10
55.4116
 20
-121.4341
  0
SEQEND
  0
POLYLINE
  8
LAYER_1
 40
0.1764
 41
0.1764
 62
1
 66
1
 10
0
 20
0
 30
0
  0
VERTEX
  8
LAYER_1
 10
52.416
 20
-119.7014
  0
VERTEX
  8
LAYER_1
 10
56.4156
 20
-119.7004
  0
SEQEND
  0
POLYLINE
  8
LAYER_1
 40
0.1764
 41
0.1764
 62
1
 66
1
 10
0
 20
0
 30
0
  0
VERTEX
  8
LAYER_1
 10
51.4166
 20
-117.9703
  0
VERTEX
  8
LAYER_1
 10
57.4123
 20
-117.9709
  0
SEQEND
  0
TEXT
  8
LAYER_1
 10
56.0007
 20
-121.4348
 11
56.0007
 21
-121.4348
 40
4.1737
 41
0.5
 50
299.999869
  1
B
  0
ENDBLK
  0
BLOCK
  8
LAYER_1
  2
AIGNBL01010026
 70
64
 10
0
 20
0
 30
0
  3
AIGNBL01010026
  0
INSERT
  8
LAYER_1
  2
AIGNBL01020027
 10
0
 20
0
 30
0
  0
TEXT
  8
LAYER_1
 10
57.1766
 20
-108.4194
 11
57.1766
 21
-108.4194
 40
4.1737
 41
0.5
 50
240.0001311
  1
A
  0
ENDBLK
  0
BLOCK
  8
LAYER_1
  2
AIGNBL01010028
 70
64
 10
0
 20
0
 30
0
  3
AIGNBL01010028
  0
POLYLINE
  8
LAYER_1
 40
0.1764
 41
0.1764
 62
1
 66
1
 10
0
 20
0
 30
0
  0
VERTEX
  8
LAYER_1
 10
50.274
 20
-115.6115
  0
VERTEX
  8
LAYER_1
 10
58.274
 20
-101.7551
  0
VERTEX
  8
LAYER_1
 10
50.7717
 20
-101.7564
  0
SEQEND
  0
POLYLINE
  8
LAYER_1
 40
0.1764
 41
0.1764
 62
1
 66
1
 10
0
 20
0
 30
0
  0
VERTEX
  8
LAYER_1
 10
57.2745
 20
-103.4862
  0
VERTEX
  8
LAYER_1
 10
58.274
 20
-101.7551
  0
SEQEND
  0
POLYLINE
  8
LAYER_1
 40
0.1764
 41
0.1764
 62
1
 66
1
 10
0
 20
0
 30
0
  0
VERTEX
  8
LAYER_1
 10
56.2751
 20
-105.2174
  0
VERTEX
  8
LAYER_1
 10
57.2745
 20
-103.4862
  0
SEQEND
  0
POLYLINE
  8
LAYER_1
 40
0.1764
 41
0.1764
 62
1
 66
1
 10
0
 20
0
 30
0
  0
VERTEX
  8
LAYER_1
 10
55.2756
 20
-106.9485
  0
VERTEX
  8
LAYER_1
 10
56.2751
 20
-105.2174
  0
SEQEND
  0
POLYLINE
  8
LAYER_1
 40
0.1764
 41
0.1764
 62
1
 66
1
 10
0
 20
0
 30
0
  0
VERTEX
  8
LAYER_1
 10
54.2761
 20
-108.6796
  0
VERTEX
  8
LAYER_1
 10
55.2756
 20
-106.9485
  0
SEQEND
  0
POLYLINE
  8
LAYER_1
 40
0.1764
 41
0.1764
 62
1
 66
1
 10
0
 20
0
 30
0
  0
VERTEX
  8
LAYER_1
 10
53.2767
 20
-110.4107
  0
VERTEX
  8
LAYER_1
 10
54.2761
 20
-108.6796
  0
SEQEND
  0
POLYLINE
  8
LAYER_1
 40
0.1764
 41
0.1764
 62
1
 66
1
 10
0
 20
0
 30
0
  0
VERTEX
  8
LAYER_1
 10
52.2772
 20
-112.1418
  0
VERTEX
  8
LAYER_1
 10
53.2767
 20
-110.4107
  0
SEQEND
  0
POLYLINE
  8
LAYER_1
 40
0.1764
 41
0.1764
 62
1
 66
1
 10
0
 20
0
 30
0
  0
VERTEX
  8
LAYER_1
 10
51.2777
 20
-113.873
  0
VERTEX
  8
LAYER_1
 10
52.2772
 20
-112.1418
  0
SEQEND
  0
POLYLINE
  8
LAYER_1
 40
0.1764
 41
0.1764
 62
1
 66
1
 10
0
 20
0
 30
0
  0
VERTEX
  8
LAYER_1
 10
57.2745
 20
-103.4862
  0
VERTEX
  8
LAYER_1
 10
49.3436
 20
-103.4845
  0
SEQEND
  0
POLYLINE
  8
LAYER_1
 40
0.1764
 41
0.1764
 62
1
 66
1
 10
0
 20
0
 30
0
  0
VERTEX
  8
LAYER_1
 10
56.2751
 20
-105.2173
  0
VERTEX
  8
LAYER_1
 10
48.6057
 20
-105.22
  0
SEQEND
  0
POLYLINE
  8
LAYER_1
 40
0.1764
 41
0.1764
 62
1
 66
1
 10
0
 20
0
 30
0
  0
VERTEX
  8
LAYER_1
 10
55.2756
 20
-106.9485
  0
VERTEX
  8
LAYER_1
 10
47.6861
 20
-106.9483
  0
SEQEND
  0
POLYLINE
  8
LAYER_1
 40
0.1764
 41
0.1764
 62
1
 66
1
 10
0
 20
0
 30
0
  0
VERTEX
  8
LAYER_1
 10
46.2769
 20
-108.6776
  0
VERTEX
  8
LAYER_1
 10
50.2748
 20
-101.7531
  0
SEQEND
  0
POLYLINE
  8
LAYER_1
 40
0.1764
 41
0.1764
 62
1
 66
1
 10
0
 20
0
 30
0
  0
VERTEX
  8
LAYER_1
 10
50.7717
 20
-101.7563
  0
VERTEX
  8
LAYER_1
 10
50.2748
 20
-101.7531
  0
SEQEND
  0
POLYLINE
  8
LAYER_1
 40
0.1764
 41
0.1764
 62
1
 66
1
 10
0
 20
0
 30
0
  0
VERTEX
  8
LAYER_1
 10
48.6057
 20
-105.2199
  0
VERTEX
  8
LAYER_1
 10
48.2759
 20
-105.2153
  0
SEQEND
  0
POLYLINE
  8
LAYER_1
 40
0.1764
 41
0.1764
 62
1
 66
1
 10
0
 20
0
 30
0
  0
VERTEX
  8
LAYER_1
 10
47.6861
 20
-106.9483
  0
VERTEX
  8
LAYER_1
 10
47.2764
 20
-106.9464
  0
SEQEND
  0
POLYLINE
  8
LAYER_1
 40
0.1764
 41
0.1764
 62
1
 66
1
 10
0
 20
0
 30
0
  0
VERTEX
  8
LAYER_1
 10
50.274
 20
-115.6114
  0
VERTEX
  8
LAYER_1
 10
46.277
 20
-108.6776
  0
SEQEND
  0
POLYLINE
  8
LAYER_1
 40
0.1764
 41
0.1764
 62
1
 66
1
 10
0
 20
0
 30
0
  0
VERTEX
  8
LAYER_1
 10
54.2762
 20
-108.6796
  0
VERTEX
  8
LAYER_1
 10
46.277
 20
-108.6776
  0
SEQEND
  0
POLYLINE
  8
LAYER_1
 40
0.1764
 41
0.1764
 62
1
 66
1
 10
0
 20
0
 30
0
  0
VERTEX
  8
LAYER_1
 10
53.2767
 20
-110.4107
  0
VERTEX
  8
LAYER_1
 10
52.28
 20
-108.6812
  0
SEQEND
  0
POLYLINE
  8
LAYER_1
 40
0.1764
 41
0.1764
 62
1
 66
1
 10
0
 20
0
 30
0
  0
VERTEX
  8
LAYER_1
 10
52.2772
 20
-112.1418
  0
VERTEX
  8
LAYER_1
 10
50.2766
 20
-108.6786
  0
SEQEND
  0
POLYLINE
  8
LAYER_1
 40
0.1764
 41
0.1764
 62
1
 66
1
 10
0
 20
0
 30
0
  0
VERTEX
  8
LAYER_1
 10
51.2778
 20
-113.8729
  0
VERTEX
  8
LAYER_1
 10
48.2804
 20
-108.6802
  0
SEQEND
  0
TEXT
  8
LAYER_1
 10
52.1827
 20
-108.1823
 11
52.1827
 21
-108.1823
 40
4.1737
 41
0.5
 50
60.00013103
  1
B
  0
ENDBLK
  0
BLOCK
  8
LAYER_1
  2
AIGNBL01010029
 70
64
 10
0
 20
0
 30
0
  3
AIGNBL01010029
  0
INSERT
  8
LAYER_1
  2
AIGNBL0102002A
 10
0
 20
0
 30
0
  0
TEXT
  8
LAYER_1
 10
27.288
 20
-135.5257
 11
27.288
 21
-135.5257
 40
4.1737
 41
0.5
  1
A
  0
ENDBLK
  0
BLOCK
  8
LAYER_1
  2
AIGNBL0101002B
 70
64
 10
0
 20
0
 30
0
  3
AIGNBL0101002B
  0
POLYLINE
  8
LAYER_1
 40
0.1764
 41
0.1764
 62
1
 66
1
 10
0
 20
0
 30
0
  0
VERTEX
  8
LAYER_1
 10
36.9856
 20
-137.9126
  0
VERTEX
  8
LAYER_1
 10
20.9857
 20
-137.9126
  0
VERTEX
  8
LAYER_1
 10
24.7379
 20
-144.4091
  0
SEQEND
  0
POLYLINE
  8
LAYER_1
 40
0.1764
 41
0.1764
 62
1
 66
1
 10
0
 20
0
 30
0
  0
VERTEX
  8
LAYER_1
 10
22.9846
 20
-137.9126
  0
VERTEX
  8
LAYER_1
 10
20.9857
 20
-137.9126
  0
SEQEND
  0
POLYLINE
  8
LAYER_1
 40
0.1764
 41
0.1764
 62
1
 66
1
 10
0
 20
0
 30
0
  0
VERTEX
  8
LAYER_1
 10
24.9836
 20
-137.9126
  0
VERTEX
  8
LAYER_1
 10
22.9846
 20
-137.9126
  0
SEQEND
  0
POLYLINE
  8
LAYER_1
 40
0.1764
 41
0.1764
 62
1
 66
1
 10
0
 20
0
 30
0
  0
VERTEX
  8
LAYER_1
 10
26.9825
 20
-137.9126
  0
VERTEX
  8
LAYER_1
 10
24.9836
 20
-137.9126
  0
SEQEND
  0
POLYLINE
  8
LAYER_1
 40
0.1764
 41
0.1764
 62
1
 66
1
 10
0
 20
0
 30
0
  0
VERTEX
  8
LAYER_1
 10
28.9814
 20
-137.9126
  0
VERTEX
  8
LAYER_1
 10
26.9825
 20
-137.9126
  0
SEQEND
  0
POLYLINE
  8
LAYER_1
 40
0.1764
 41
0.1764
 62
1
 66
1
 10
0
 20
0
 30
0
  0
VERTEX
  8
LAYER_1
 10
30.9804
 20
-137.9126
  0
VERTEX
  8
LAYER_1
 10
28.9814
 20
-137.9126
  0
SEQEND
  0
POLYLINE
  8
LAYER_1
 40
0.1764
 41
0.1764
 62
1
 66
1
 10
0
 20
0
 30
0
  0
VERTEX
  8
LAYER_1
 10
32.9793
 20
-137.9126
  0
VERTEX
  8
LAYER_1
 10
30.9804
 20
-137.9126
  0
SEQEND
  0
POLYLINE
  8
LAYER_1
 40
0.1764
 41
0.1764
 62
1
 66
1
 10
0
 20
0
 30
0
  0
VERTEX
  8
LAYER_1
 10
34.9782
 20
-137.9126
  0
VERTEX
  8
LAYER_1
 10
32.9793
 20
-137.9126
  0
SEQEND
  0
POLYLINE
  8
LAYER_1
 40
0.1764
 41
0.1764
 62
1
 66
1
 10
0
 20
0
 30
0
  0
VERTEX
  8
LAYER_1
 10
22.9846
 20
-137.9126
  0
VERTEX
  8
LAYER_1
 10
26.9486
 20
-144.7818
  0
SEQEND
  0
POLYLINE
  8
LAYER_1
 40
0.1764
 41
0.1764
 62
1
 66
1
 10
0
 20
0
 30
0
  0
VERTEX
  8
LAYER_1
 10
24.9835
 20
-137.9126
  0
VERTEX
  8
LAYER_1
 10
28.8205
 20
-144.5531
  0
SEQEND
  0
POLYLINE
  8
LAYER_1
 40
0.1764
 41
0.1764
 62
1
 66
1
 10
0
 20
0
 30
0
  0
VERTEX
  8
LAYER_1
 10
26.9825
 20
-137.9126
  0
VERTEX
  8
LAYER_1
 10
30.7771
 20
-144.4853
  0
SEQEND
  0
POLYLINE
  8
LAYER_1
 40
0.1764
 41
0.1764
 62
1
 66
1
 10
0
 20
0
 30
0
  0
VERTEX
  8
LAYER_1
 10
32.9793
 20
-144.8411
  0
VERTEX
  8
LAYER_1
 10
24.9835
 20
-144.8411
  0
SEQEND
  0
POLYLINE
  8
LAYER_1
 40
0.1764
 41
0.1764
 62
1
 66
1
 10
0
 20
0
 30
0
  0
VERTEX
  8
LAYER_1
 10
24.7379
 20
-144.4091
  0
VERTEX
  8
LAYER_1
 10
24.9835
 20
-144.8411
  0
SEQEND
  0
POLYLINE
  8
LAYER_1
 40
0.1764
 41
0.1764
 62
1
 66
1
 10
0
 20
0
 30
0
  0
VERTEX
  8
LAYER_1
 10
28.8205
 20
-144.5531
  0
VERTEX
  8
LAYER_1
 10
28.9814
 20
-144.8411
  0
SEQEND
  0
POLYLINE
  8
LAYER_1
 40
0.1764
 41
0.1764
 62
1
 66
1
 10
0
 20
0
 30
0
  0
VERTEX
  8
LAYER_1
 10
30.777
 20
-144.4853
  0
VERTEX
  8
LAYER_1
 10
30.9803
 20
-144.8411
  0
SEQEND
  0
POLYLINE
  8
LAYER_1
 40
0.1764
 41
0.1764
 62
1
 66
1
 10
0
 20
0
 30
0
  0
VERTEX
  8
LAYER_1
 10
36.9856
 20
-137.9126
  0
VERTEX
  8
LAYER_1
 10
32.9793
 20
-144.8411
  0
SEQEND
  0
POLYLINE
  8
LAYER_1
 40
0.1764
 41
0.1764
 62
1
 66
1
 10
0
 20
0
 30
0
  0
VERTEX
  8
LAYER_1
 10
28.9814
 20
-137.9126
  0
VERTEX
  8
LAYER_1
 10
32.9793
 20
-144.8411
  0
SEQEND
  0
POLYLINE
  8
LAYER_1
 40
0.1764
 41
0.1764
 62
1
 66
1
 10
0
 20
0
 30
0
  0
VERTEX
  8
LAYER_1
 10
30.9803
 20
-137.9126
  0
VERTEX
  8
LAYER_1
 10
29.9809
 20
-139.6405
  0
SEQEND
  0
POLYLINE
  8
LAYER_1
 40
0.1764
 41
0.1764
 62
1
 66
1
 10
0
 20
0
 30
0
  0
VERTEX
  8
LAYER_1
 10
32.9792
 20
-137.9126
  0
VERTEX
  8
LAYER_1
 10
30.9803
 20
-141.3768
  0
SEQEND
  0
POLYLINE
  8
LAYER_1
 40
0.1764
 41
0.1764
 62
1
 66
1
 10
0
 20
0
 30
0
  0
VERTEX
  8
LAYER_1
 10
34.9782
 20
-137.9126
  0
VERTEX
  8
LAYER_1
 10
31.9798
 20
-143.1047
  0
SEQEND
  0
TEXT
  8
LAYER_1
 10
29.7939
 20
-139.7892
 11
29.7939
 21
-139.7892
 40
4.1737
 41
0.5
 50
180
  1
B
  0
ENDBLK
  0
BLOCK
  8
LAYER_1
  2
AIGNBL0101002C
 70
64
 10
0
 20
0
 30
0
  3
AIGNBL0101002C
  0
INSERT
  8
LAYER_1
  2
AIGNBL0102002D
 10
0
 20
0
 30
0
  0
TEXT
  8
LAYER_1
 10
40.4695
 20
-147.7158
 11
40.4695
 21
-147.7158
 40
4.1737
 41
0.5
 50
119.9998689
  1
A
  0
ENDBLK
  0
BLOCK
  8
LAYER_1
  2
AIGNBL0101002E
 70
64
 10
0
 20
0
 30
0
  3
AIGNBL0101002E
  0
POLYLINE
  8
LAYER_1
 40
0.1764
 41
0.1764
 62
1
 66
1
 10
0
 20
0
 30
0
  0
VERTEX
  8
LAYER_1
 10
37.674
 20
-138.1363
  0
VERTEX
  8
LAYER_1
 10
45.674
 20
-151.9926
  0
VERTEX
  8
LAYER_1
 10
49.424
 20
-145.4949
  0
SEQEND
  0
POLYLINE
  8
LAYER_1
 40
0.1764
 41
0.1764
 62
1
 66
1
 10
0
 20
0
 30
0
  0
VERTEX
  8
LAYER_1
 10
44.6745
 20
-150.2615
  0
VERTEX
  8
LAYER_1
 10
45.674
 20
-151.9926
  0
SEQEND
  0
POLYLINE
  8
LAYER_1
 40
0.1764
 41
0.1764
 62
1
 66
1
 10
0
 20
0
 30
0
  0
VERTEX
  8
LAYER_1
 10
43.675
 20
-148.5304
  0
VERTEX
  8
LAYER_1
 10
44.6745
 20
-150.2615
  0
SEQEND
  0
POLYLINE
  8
LAYER_1
 40
0.1764
 41
0.1764
 62
1
 66
1
 10
0
 20
0
 30
0
  0
VERTEX
  8
LAYER_1
 10
42.6756
 20
-146.7993
  0
VERTEX
  8
LAYER_1
 10
43.675
 20
-148.5304
  0
SEQEND
  0
POLYLINE
  8
LAYER_1
 40
0.1764
 41
0.1764
 62
1
 66
1
 10
0
 20
0
 30
0
  0
VERTEX
  8
LAYER_1
 10
41.6761
 20
-145.0681
  0
VERTEX
  8
LAYER_1
 10
42.6756
 20
-146.7993
  0
SEQEND
  0
POLYLINE
  8
LAYER_1
 40
0.1764
 41
0.1764
 62
1
 66
1
 10
0
 20
0
 30
0
  0
VERTEX
  8
LAYER_1
 10
40.6767
 20
-143.337
  0
VERTEX
  8
LAYER_1
 10
41.6761
 20
-145.0681
  0
SEQEND
  0
POLYLINE
  8
LAYER_1
 40
0.1764
 41
0.1764
 62
1
 66
1
 10
0
 20
0
 30
0
  0
VERTEX
  8
LAYER_1
 10
39.6772
 20
-141.6059
  0
VERTEX
  8
LAYER_1
 10
40.6767
 20
-143.337
  0
SEQEND
  0
POLYLINE
  8
LAYER_1
 40
0.1764
 41
0.1764
 62
1
 66
1
 10
0
 20
0
 30
0
  0
VERTEX
  8
LAYER_1
 10
38.6777
 20
-139.8748
  0
VERTEX
  8
LAYER_1
 10
39.6772
 20
-141.6059
  0
SEQEND
  0
POLYLINE
  8
LAYER_1
 40
0.1764
 41
0.1764
 62
1
 66
1
 10
0
 20
0
 30
0
  0
VERTEX
  8
LAYER_1
 10
44.6745
 20
-150.2615
  0
VERTEX
  8
LAYER_1
 10
48.6414
 20
-143.394
  0
SEQEND
  0
POLYLINE
  8
LAYER_1
 40
0.1764
 41
0.1764
 62
1
 66
1
 10
0
 20
0
 30
0
  0
VERTEX
  8
LAYER_1
 10
43.6751
 20
-148.5304
  0
VERTEX
  8
LAYER_1
 10
47.5075
 20
-141.8873
  0
SEQEND
  0
POLYLINE
  8
LAYER_1
 40
0.1764
 41
0.1764
 62
1
 66
1
 10
0
 20
0
 30
0
  0
VERTEX
  8
LAYER_1
 10
42.6756
 20
-146.7993
  0
VERTEX
  8
LAYER_1
 10
46.4705
 20
-140.2267
  0
SEQEND
  0
POLYLINE
  8
LAYER_1
 40
0.1764
 41
0.1764
 62
1
 66
1
 10
0
 20
0
 30
0
  0
VERTEX
  8
LAYER_1
 10
45.6775
 20
-138.1417
  0
VERTEX
  8
LAYER_1
 10
49.6753
 20
-145.0662
  0
SEQEND
  0
POLYLINE
  8
LAYER_1
 40
0.1764
 41
0.1764
 62
1
 66
1
 10
0
 20
0
 30
0
  0
VERTEX
  8
LAYER_1
 10
49.424
 20
-145.4949
  0
VERTEX
  8
LAYER_1
 10
49.6753
 20
-145.0662
  0
SEQEND
  0
POLYLINE
  8
LAYER_1
 40
0.1764
 41
0.1764
 62
1
 66
1
 10
0
 20
0
 30
0
  0
VERTEX
  8
LAYER_1
 10
47.5075
 20
-141.8873
  0
VERTEX
  8
LAYER_1
 10
47.6764
 20
-141.6039
  0
SEQEND
  0
POLYLINE
  8
LAYER_1
 40
0.1764
 41
0.1764
 62
1
 66
1
 10
0
 20
0
 30
0
  0
VERTEX
  8
LAYER_1
 10
46.4705
 20
-140.2267
  0
VERTEX
  8
LAYER_1
 10
46.6769
 20
-139.8728
  0
SEQEND
  0
POLYLINE
  8
LAYER_1
 40
0.1764
 41
0.1764
 62
1
 66
1
 10
0
 20
0
 30
0
  0
VERTEX
  8
LAYER_1
 10
37.674
 20
-138.1363
  0
VERTEX
  8
LAYER_1
 10
45.6775
 20
-138.1417
  0
SEQEND
  0
POLYLINE
  8
LAYER_1
 40
0.1764
 41
0.1764
 62
1
 66
1
 10
0
 20
0
 30
0
  0
VERTEX
  8
LAYER_1
 10
41.6761
 20
-145.0682
  0
VERTEX
  8
LAYER_1
 10
45.6775
 20
-138.1417
  0
SEQEND
  0
POLYLINE
  8
LAYER_1
 40
0.1764
 41
0.1764
 62
1
 66
1
 10
0
 20
0
 30
0
  0
VERTEX
  8
LAYER_1
 10
40.6767
 20
-143.3371
  0
VERTEX
  8
LAYER_1
 10
42.6728
 20
-143.3387
  0
SEQEND
  0
POLYLINE
  8
LAYER_1
 40
0.1764
 41
0.1764
 62
1
 66
1
 10
0
 20
0
 30
0
  0
VERTEX
  8
LAYER_1
 10
39.6772
 20
-141.6059
  0
VERTEX
  8
LAYER_1
 10
43.6768
 20
-141.6049
  0
SEQEND
  0
POLYLINE
  8
LAYER_1
 40
0.1764
 41
0.1764
 62
1
 66
1
 10
0
 20
0
 30
0
  0
VERTEX
  8
LAYER_1
 10
38.6777
 20
-139.8748
  0
VERTEX
  8
LAYER_1
 10
44.6735
 20
-139.8754
  0
SEQEND
  0
TEXT
  8
LAYER_1
 10
43.2618
 20
-143.3393
 11
43.2618
 21
-143.3393
 40
4.1737
 41
0.5
 50
299.999869
  1
B
  0
ENDBLK
  0
BLOCK
  8
LAYER_1
  2
AIGNBL0101002F
 70
64
 10
0
 20
0
 30
0
  3
AIGNBL0101002F
  0
INSERT
  8
LAYER_1
  2
AIGNBL01020030
 10
0
 20
0
 30
0
  0
TEXT
  8
LAYER_1
 10
44.438
 20
-130.3241
 11
44.438
 21
-130.3241
 40
4.1737
 41
0.5
 50
240.0001311
  1
A
  0
ENDBLK
  0
BLOCK
  8
LAYER_1
  2
AIGNBL01010031
 70
64
 10
0
 20
0
 30
0
  3
AIGNBL01010031
  0
POLYLINE
  8
LAYER_1
 40
0.1764
 41
0.1764
 62
1
 66
1
 10
0
 20
0
 30
0
  0
VERTEX
  8
LAYER_1
 10
37.5352
 20
-137.516
  0
VERTEX
  8
LAYER_1
 10
45.5352
 20
-123.6596
  0
VERTEX
  8
LAYER_1
 10
38.0329
 20
-123.6609
  0
SEQEND
  0
POLYLINE
  8
LAYER_1
 40
0.1764
 41
0.1764
 62
1
 66
1
 10
0
 20
0
 30
0
  0
VERTEX
  8
LAYER_1
 10
44.5357
 20
-125.3908
  0
VERTEX
  8
LAYER_1
 10
45.5352
 20
-123.6596
  0
SEQEND
  0
POLYLINE
  8
LAYER_1
 40
0.1764
 41
0.1764
 62
1
 66
1
 10
0
 20
0
 30
0
  0
VERTEX
  8
LAYER_1
 10
43.5363
 20
-127.1219
  0
VERTEX
  8
LAYER_1
 10
44.5357
 20
-125.3908
  0
SEQEND
  0
POLYLINE
  8
LAYER_1
 40
0.1764
 41
0.1764
 62
1
 66
1
 10
0
 20
0
 30
0
  0
VERTEX
  8
LAYER_1
 10
42.5368
 20
-128.853
  0
VERTEX
  8
LAYER_1
 10
43.5363
 20
-127.1219
  0
SEQEND
  0
POLYLINE
  8
LAYER_1
 40
0.1764
 41
0.1764
 62
1
 66
1
 10
0
 20
0
 30
0
  0
VERTEX
  8
LAYER_1
 10
41.5373
 20
-130.5841
  0
VERTEX
  8
LAYER_1
 10
42.5368
 20
-128.853
  0
SEQEND
  0
POLYLINE
  8
LAYER_1
 40
0.1764
 41
0.1764
 62
1
 66
1
 10
0
 20
0
 30
0
  0
VERTEX
  8
LAYER_1
 10
40.5379
 20
-132.3153
  0
VERTEX
  8
LAYER_1
 10
41.5373
 20
-130.5841
  0
SEQEND
  0
POLYLINE
  8
LAYER_1
 40
0.1764
 41
0.1764
 62
1
 66
1
 10
0
 20
0
 30
0
  0
VERTEX
  8
LAYER_1
 10
39.5384
 20
-134.0464
  0
VERTEX
  8
LAYER_1
 10
40.5379
 20
-132.3153
  0
SEQEND
  0
POLYLINE
  8
LAYER_1
 40
0.1764
 41
0.1764
 62
1
 66
1
 10
0
 20
0
 30
0
  0
VERTEX
  8
LAYER_1
 10
38.5389
 20
-135.7775
  0
VERTEX
  8
LAYER_1
 10
39.5384
 20
-134.0464
  0
SEQEND
  0
POLYLINE
  8
LAYER_1
 40
0.1764
 41
0.1764
 62
1
 66
1
 10
0
 20
0
 30
0
  0
VERTEX
  8
LAYER_1
 10
44.5357
 20
-125.3908
  0
VERTEX
  8
LAYER_1
 10
36.6048
 20
-125.3891
  0
SEQEND
  0
POLYLINE
  8
LAYER_1
 40
0.1764
 41
0.1764
 62
1
 66
1
 10
0
 20
0
 30
0
  0
VERTEX
  8
LAYER_1
 10
43.5363
 20
-127.1219
  0
VERTEX
  8
LAYER_1
 10
35.8669
 20
-127.1245
  0
SEQEND
  0
POLYLINE
  8
LAYER_1
 40
0.1764
 41
0.1764
 62
1
 66
1
 10
0
 20
0
 30
0
  0
VERTEX
  8
LAYER_1
 10
42.5368
 20
-128.853
  0
VERTEX
  8
LAYER_1
 10
34.9473
 20
-128.8528
  0
SEQEND
  0
POLYLINE
  8
LAYER_1
 40
0.1764
 41
0.1764
 62
1
 66
1
 10
0
 20
0
 30
0
  0
VERTEX
  8
LAYER_1
 10
33.5381
 20
-130.5821
  0
VERTEX
  8
LAYER_1
 10
37.536
 20
-123.6576
  0
SEQEND
  0
POLYLINE
  8
LAYER_1
 40
0.1764
 41
0.1764
 62
1
 66
1
 10
0
 20
0
 30
0
  0
VERTEX
  8
LAYER_1
 10
38.0329
 20
-123.6609
  0
VERTEX
  8
LAYER_1
 10
37.536
 20
-123.6576
  0
SEQEND
  0
POLYLINE
  8
LAYER_1
 40
0.1764
 41
0.1764
 62
1
 66
1
 10
0
 20
0
 30
0
  0
VERTEX
  8
LAYER_1
 10
35.8669
 20
-127.1245
  0
VERTEX
  8
LAYER_1
 10
35.5371
 20
-127.1199
  0
SEQEND
  0
POLYLINE
  8
LAYER_1
 40
0.1764
 41
0.1764
 62
1
 66
1
 10
0
 20
0
 30
0
  0
VERTEX
  8
LAYER_1
 10
34.9473
 20
-128.8528
  0
VERTEX
  8
LAYER_1
 10
34.5376
 20
-128.851
  0
SEQEND
  0
POLYLINE
  8
LAYER_1
 40
0.1764
 41
0.1764
 62
1
 66
1
 10
0
 20
0
 30
0
  0
VERTEX
  8
LAYER_1
 10
37.5352
 20
-137.516
  0
VERTEX
  8
LAYER_1
 10
33.5381
 20
-130.5821
  0
SEQEND
  0
POLYLINE
  8
LAYER_1
 40
0.1764
 41
0.1764
 62
1
 66
1
 10
0
 20
0
 30
0
  0
VERTEX
  8
LAYER_1
 10
41.5373
 20
-130.5841
  0
VERTEX
  8
LAYER_1
 10
33.5381
 20
-130.5821
  0
SEQEND
  0
POLYLINE
  8
LAYER_1
 40
0.1764
 41
0.1764
 62
1
 66
1
 10
0
 20
0
 30
0
  0
VERTEX
  8
LAYER_1
 10
40.5379
 20
-132.3152
  0
VERTEX
  8
LAYER_1
 10
39.5412
 20
-130.5857
  0
SEQEND
  0
POLYLINE
  8
LAYER_1
 40
0.1764
 41
0.1764
 62
1
 66
1
 10
0
 20
0
 30
0
  0
VERTEX
  8
LAYER_1
 10
39.5384
 20
-134.0464
  0
VERTEX
  8
LAYER_1
 10
37.5377
 20
-130.5831
  0
SEQEND
  0
POLYLINE
  8
LAYER_1
 40
0.1764
 41
0.1764
 62
1
 66
1
 10
0
 20
0
 30
0
  0
VERTEX
  8
LAYER_1
 10
38.5389
 20
-135.7775
  0
VERTEX
  8
LAYER_1
 10
35.5416
 20
-130.5847
  0
SEQEND
  0
TEXT
  8
LAYER_1
 10
39.4438
 20
-130.0869
 11
39.4438
 21
-130.0869
 40
4.1737
 41
0.5
 50
60.00013103
  1
B
  0
ENDBLK
  0
BLOCK
  8
LAYER_1
  2
AIGNBL01010032
 70
64
 10
0
 20
0
 30
0
  3
AIGNBL01010032
  0
INSERT
  8
LAYER_1
  2
AIGNBL01020033
 10
0
 20
0
 30
0
  0
TEXT
  8
LAYER_1
 10
1.3441
 20
-135.2267
 11
1.3441
 21
-135.2267
 40
4.1737
 41
0.5
  1
A
  0
ENDBLK
  0
BLOCK
  8
LAYER_1
  2
AIGNBL01010034
 70
64
 10
0
 20
0
 30
0
  3
AIGNBL01010034
  0
POLYLINE
  8
LAYER_1
 40
0.1764
 41
0.1764
 62
1
 66
1
 10
0
 20
0
 30
0
  0
VERTEX
  8
LAYER_1
 10
11.0418
 20
-137.6136
  0
VERTEX
  8
LAYER_1
 10
-4.9581
 20
-137.6136
  0
VERTEX
  8
LAYER_1
 10
-1.2059
 20
-144.1101
  0
SEQEND
  0
POLYLINE
  8
LAYER_1
 40
0.1764
 41
0.1764
 62
1
 66
1
 10
0
 20
0
 30
0
  0
VERTEX
  8
LAYER_1
 10
-2.9592
 20
-137.6136
  0
VERTEX
  8
LAYER_1
 10
-4.9581
 20
-137.6136
  0
SEQEND
  0
POLYLINE
  8
LAYER_1
 40
0.1764
 41
0.1764
 62
1
 66
1
 10
0
 20
0
 30
0
  0
VERTEX
  8
LAYER_1
 10
-0.9603
 20
-137.6136
  0
VERTEX
  8
LAYER_1
 10
-2.9592
 20
-137.6136
  0
SEQEND
  0
POLYLINE
  8
LAYER_1
 40
0.1764
 41
0.1764
 62
1
 66
1
 10
0
 20
0
 30
0
  0
VERTEX
  8
LAYER_1
 10
1.0387
 20
-137.6136
  0
VERTEX
  8
LAYER_1
 10
-0.9603
 20
-137.6136
  0
SEQEND
  0
POLYLINE
  8
LAYER_1
 40
0.1764
 41
0.1764
 62
1
 66
1
 10
0
 20
0
 30
0
  0
VERTEX
  8
LAYER_1
 10
3.0376
 20
-137.6136
  0
VERTEX
  8
LAYER_1
 10
1.0387
 20
-137.6136
  0
SEQEND
  0
POLYLINE
  8
LAYER_1
 40
0.1764
 41
0.1764
 62
1
 66
1
 10
0
 20
0
 30
0
  0
VERTEX
  8
LAYER_1
 10
5.0365
 20
-137.6136
  0
VERTEX
  8
LAYER_1
 10
3.0376
 20
-137.6136
  0
SEQEND
  0
POLYLINE
  8
LAYER_1
 40
0.1764
 41
0.1764
 62
1
 66
1
 10
0
 20
0
 30
0
  0
VERTEX
  8
LAYER_1
 10
7.0354
 20
-137.6136
  0
VERTEX
  8
LAYER_1
 10
5.0365
 20
-137.6136
  0
SEQEND
  0
POLYLINE
  8
LAYER_1
 40
0.1764
 41
0.1764
 62
1
 66
1
 10
0
 20
0
 30
0
  0
VERTEX
  8
LAYER_1
 10
9.0344
 20
-137.6136
  0
VERTEX
  8
LAYER_1
 10
7.0354
 20
-137.6136
  0
SEQEND
  0
POLYLINE
  8
LAYER_1
 40
0.1764
 41
0.1764
 62
1
 66
1
 10
0
 20
0
 30
0
  0
VERTEX
  8
LAYER_1
 10
-2.9592
 20
-137.6136
  0
VERTEX
  8
LAYER_1
 10
1.0048
 20
-144.4828
  0
SEQEND
  0
POLYLINE
  8
LAYER_1
 40
0.1764
 41
0.1764
 62
1
 66
1
 10
0
 20
0
 30
0
  0
VERTEX
  8
LAYER_1
 10
-0.9603
 20
-137.6136
  0
VERTEX
  8
LAYER_1
 10
2.8766
 20
-144.2541
  0
SEQEND
  0
POLYLINE
  8
LAYER_1
 40
0.1764
 41
0.1764
 62
1
 66
1
 10
0
 20
0
 30
0
  0
VERTEX
  8
LAYER_1
 10
1.0386
 20
-137.6136
  0
VERTEX
  8
LAYER_1
 10
4.8332
 20
-144.1863
  0
SEQEND
  0
POLYLINE
  8
LAYER_1
 40
0.1764
 41
0.1764
 62
1
 66
1
 10
0
 20
0
 30
0
  0
VERTEX
  8
LAYER_1
 10
7.0354
 20
-144.5421
  0
VERTEX
  8
LAYER_1
 10
-0.9603
 20
-144.5421
  0
SEQEND
  0
POLYLINE
  8
LAYER_1
 40
0.1764
 41
0.1764
 62
1
 66
1
 10
0
 20
0
 30
0
  0
VERTEX
  8
LAYER_1
 10
-1.2059
 20
-144.1101
  0
VERTEX
  8
LAYER_1
 10
-0.9603
 20
-144.5421
  0
SEQEND
  0
POLYLINE
  8
LAYER_1
 40
0.1764
 41
0.1764
 62
1
 66
1
 10
0
 20
0
 30
0
  0
VERTEX
  8
LAYER_1
 10
2.8766
 20
-144.2541
  0
VERTEX
  8
LAYER_1
 10
3.0376
 20
-144.5421
  0
SEQEND
  0
POLYLINE
  8
LAYER_1
 40
0.1764
 41
0.1764
 62
1
 66
1
 10
0
 20
0
 30
0
  0
VERTEX
  8
LAYER_1
 10
4.8332
 20
-144.1863
  0
VERTEX
  8
LAYER_1
 10
5.0365
 20
-144.5421
  0
SEQEND
  0
POLYLINE
  8
LAYER_1
 40
0.1764
 41
0.1764
 62
1
 66
1
 10
0
 20
0
 30
0
  0
VERTEX
  8
LAYER_1
 10
11.0418
 20
-137.6136
  0
VERTEX
  8
LAYER_1
 10
7.0354
 20
-144.5421
  0
SEQEND
  0
POLYLINE
  8
LAYER_1
 40
0.1764
 41
0.1764
 62
1
 66
1
 10
0
 20
0
 30
0
  0
VERTEX
  8
LAYER_1
 10
3.0376
 20
-137.6136
  0
VERTEX
  8
LAYER_1
 10
7.0354
 20
-144.5421
  0
SEQEND
  0
POLYLINE
  8
LAYER_1
 40
0.1764
 41
0.1764
 62
1
 66
1
 10
0
 20
0
 30
0
  0
VERTEX
  8
LAYER_1
 10
5.0365
 20
-137.6136
  0
VERTEX
  8
LAYER_1
 10
4.037
 20
-139.3415
  0
SEQEND
  0
POLYLINE
  8
LAYER_1
 40
0.1764
 41
0.1764
 62
1
 66
1
 10
0
 20
0
 30
0
  0
VERTEX
  8
LAYER_1
 10
7.0354
 20
-137.6136
  0
VERTEX
  8
LAYER_1
 10
5.0365
 20
-141.0778
  0
SEQEND
  0
POLYLINE
  8
LAYER_1
 40
0.1764
 41
0.1764
 62
1
 66
1
 10
0
 20
0
 30
0
  0
VERTEX
  8
LAYER_1
 10
9.0343
 20
-137.6136
  0
VERTEX
  8
LAYER_1
 10
6.0359
 20
-142.8057
  0
SEQEND
  0
TEXT
  8
LAYER_1
 10
3.8502
 20
-139.4902
 11
3.8502
 21
-139.4902
 40
4.1737
 41
0.5
 50
180
  1
B
  0
ENDBLK
  0
BLOCK
  8
LAYER_1
  2
AIGNBL01010035
 70
64
 10
0
 20
0
 30
0
  3
AIGNBL01010035
  0
INSERT
  8
LAYER_1
  2
AIGNBL01020036
 10
0
 20
0
 30
0
  0
TEXT
  8
LAYER_1
 10
14.5257
 20
-147.4168
 11
14.5257
 21
-147.4168
 40
4.1737
 41
0.5
 50
119.9998689
  1
A
  0
ENDBLK
  0
BLOCK
  8
LAYER_1
  2
AIGNBL01010037
 70
64
 10
0
 20
0
 30
0
  3
AIGNBL01010037
  0
POLYLINE
  8
LAYER_1
 40
0.1764
 41
0.1764
 62
1
 66
1
 10
0
 20
0
 30
0
  0
VERTEX
  8
LAYER_1
 10
11.7302
 20
-137.8373
  0
VERTEX
  8
LAYER_1
 10
19.7301
 20
-151.6937
  0
VERTEX
  8
LAYER_1
 10
23.4802
 20
-145.1959
  0
SEQEND
  0
POLYLINE
  8
LAYER_1
 40
0.1764
 41
0.1764
 62
1
 66
1
 10
0
 20
0
 30
0
  0
VERTEX
  8
LAYER_1
 10
18.7307
 20
-149.9625
  0
VERTEX
  8
LAYER_1
 10
19.7301
 20
-151.6936
  0
SEQEND
  0
POLYLINE
  8
LAYER_1
 40
0.1764
 41
0.1764
 62
1
 66
1
 10
0
 20
0
 30
0
  0
VERTEX
  8
LAYER_1
 10
17.7312
 20
-148.2314
  0
VERTEX
  8
LAYER_1
 10
18.7307
 20
-149.9625
  0
SEQEND
  0
POLYLINE
  8
LAYER_1
 40
0.1764
 41
0.1764
 62
1
 66
1
 10
0
 20
0
 30
0
  0
VERTEX
  8
LAYER_1
 10
16.7317
 20
-146.5003
  0
VERTEX
  8
LAYER_1
 10
17.7312
 20
-148.2314
  0
SEQEND
  0
POLYLINE
  8
LAYER_1
 40
0.1764
 41
0.1764
 62
1
 66
1
 10
0
 20
0
 30
0
  0
VERTEX
  8
LAYER_1
 10
15.7323
 20
-144.7692
  0
VERTEX
  8
LAYER_1
 10
16.7317
 20
-146.5003
  0
SEQEND
  0
POLYLINE
  8
LAYER_1
 40
0.1764
 41
0.1764
 62
1
 66
1
 10
0
 20
0
 30
0
  0
VERTEX
  8
LAYER_1
 10
14.7328
 20
-143.038
  0
VERTEX
  8
LAYER_1
 10
15.7323
 20
-144.7692
  0
SEQEND
  0
POLYLINE
  8
LAYER_1
 40
0.1764
 41
0.1764
 62
1
 66
1
 10
0
 20
0
 30
0
  0
VERTEX
  8
LAYER_1
 10
13.7334
 20
-141.3069
  0
VERTEX
  8
LAYER_1
 10
14.7328
 20
-143.038
  0
SEQEND
  0
POLYLINE
  8
LAYER_1
 40
0.1764
 41
0.1764
 62
1
 66
1
 10
0
 20
0
 30
0
  0
VERTEX
  8
LAYER_1
 10
12.7339
 20
-139.5758
  0
VERTEX
  8
LAYER_1
 10
13.7334
 20
-141.3069
  0
SEQEND
  0
POLYLINE
  8
LAYER_1
 40
0.1764
 41
0.1764
 62
1
 66
1
 10
0
 20
0
 30
0
  0
VERTEX
  8
LAYER_1
 10
18.7307
 20
-149.9625
  0
VERTEX
  8
LAYER_1
 10
22.6976
 20
-143.095
  0
SEQEND
  0
POLYLINE
  8
LAYER_1
 40
0.1764
 41
0.1764
 62
1
 66
1
 10
0
 20
0
 30
0
  0
VERTEX
  8
LAYER_1
 10
17.7312
 20
-148.2314
  0
VERTEX
  8
LAYER_1
 10
21.5636
 20
-141.5883
  0
SEQEND
  0
POLYLINE
  8
LAYER_1
 40
0.1764
 41
0.1764
 62
1
 66
1
 10
0
 20
0
 30
0
  0
VERTEX
  8
LAYER_1
 10
16.7318
 20
-146.5003
  0
VERTEX
  8
LAYER_1
 10
20.5266
 20
-139.9277
  0
SEQEND
  0
POLYLINE
  8
LAYER_1
 40
0.1764
 41
0.1764
 62
1
 66
1
 10
0
 20
0
 30
0
  0
VERTEX
  8
LAYER_1
 10
19.7336
 20
-137.8427
  0
VERTEX
  8
LAYER_1
 10
23.7315
 20
-144.7672
  0
SEQEND
  0
POLYLINE
  8
LAYER_1
 40
0.1764
 41
0.1764
 62
1
 66
1
 10
0
 20
0
 30
0
  0
VERTEX
  8
LAYER_1
 10
23.4802
 20
-145.1959
  0
VERTEX
  8
LAYER_1
 10
23.7315
 20
-144.7672
  0
SEQEND
  0
POLYLINE
  8
LAYER_1
 40
0.1764
 41
0.1764
 62
1
 66
1
 10
0
 20
0
 30
0
  0
VERTEX
  8
LAYER_1
 10
21.5636
 20
-141.5883
  0
VERTEX
  8
LAYER_1
 10
21.7326
 20
-141.3049
  0
SEQEND
  0
POLYLINE
  8
LAYER_1
 40
0.1764
 41
0.1764
 62
1
 66
1
 10
0
 20
0
 30
0
  0
VERTEX
  8
LAYER_1
 10
20.5267
 20
-139.9277
  0
VERTEX
  8
LAYER_1
 10
20.7331
 20
-139.5738
  0
SEQEND
  0
POLYLINE
  8
LAYER_1
 40
0.1764
 41
0.1764
 62
1
 66
1
 10
0
 20
0
 30
0
  0
VERTEX
  8
LAYER_1
 10
11.7302
 20
-137.8373
  0
VERTEX
  8
LAYER_1
 10
19.7336
 20
-137.8427
  0
SEQEND
  0
POLYLINE
  8
LAYER_1
 40
0.1764
 41
0.1764
 62
1
 66
1
 10
0
 20
0
 30
0
  0
VERTEX
  8
LAYER_1
 10
15.7323
 20
-144.7692
  0
VERTEX
  8
LAYER_1
 10
19.7336
 20
-137.8427
  0
SEQEND
  0
POLYLINE
  8
LAYER_1
 40
0.1764
 41
0.1764
 62
1
 66
1
 10
0
 20
0
 30
0
  0
VERTEX
  8
LAYER_1
 10
14.7328
 20
-143.0381
  0
VERTEX
  8
LAYER_1
 10
16.729
 20
-143.0397
  0
SEQEND
  0
POLYLINE
  8
LAYER_1
 40
0.1764
 41
0.1764
 62
1
 66
1
 10
0
 20
0
 30
0
  0
VERTEX
  8
LAYER_1
 10
13.7334
 20
-141.3069
  0
VERTEX
  8
LAYER_1
 10
17.733
 20
-141.3059
  0
SEQEND
  0
POLYLINE
  8
LAYER_1
 40
0.1764
 41
0.1764
 62
1
 66
1
 10
0
 20
0
 30
0
  0
VERTEX
  8
LAYER_1
 10
12.7339
 20
-139.5758
  0
VERTEX
  8
LAYER_1
 10
18.7296
 20
-139.5764
  0
SEQEND
  0
TEXT
  8
LAYER_1
 10
17.3182
 20
-143.0404
 11
17.3182
 21
-143.0404
 40
4.1737
 41
0.5
 50
299.999869
  1
B
  0
ENDBLK
  0
BLOCK
  8
LAYER_1
  2
AIGNBL01010038
 70
64
 10
0
 20
0
 30
0
  3
AIGNBL01010038
  0
INSERT
  8
LAYER_1
  2
AIGNBL01020039
 10
0
 20
0
 30
0
  0
TEXT
  8
LAYER_1
 10
18.4937
 20
-130.0252
 11
18.4937
 21
-130.0252
 40
4.1737
 41
0.5
 50
240.0001311
  1
A
  0
ENDBLK
  0
BLOCK
  8
LAYER_1
  2
AIGNBL0101003A
 70
64
 10
0
 20
0
 30
0
  3
AIGNBL0101003A
  0
POLYLINE
  8
LAYER_1
 40
0.1764
 41
0.1764
 62
1
 66
1
 10
0
 20
0
 30
0
  0
VERTEX
  8
LAYER_1
 10
11.5914
 20
-137.217
  0
VERTEX
  8
LAYER_1
 10
19.5914
 20
-123.3606
  0
VERTEX
  8
LAYER_1
 10
12.0891
 20
-123.3619
  0
SEQEND
  0
POLYLINE
  8
LAYER_1
 40
0.1764
 41
0.1764
 62
1
 66
1
 10
0
 20
0
 30
0
  0
VERTEX
  8
LAYER_1
 10
18.5919
 20
-125.0918
  0
VERTEX
  8
LAYER_1
 10
19.5913
 20
-123.3607
  0
SEQEND
  0
POLYLINE
  8
LAYER_1
 40
0.1764
 41
0.1764
 62
1
 66
1
 10
0
 20
0
 30
0
  0
VERTEX
  8
LAYER_1
 10
17.5924
 20
-126.8229
  0
VERTEX
  8
LAYER_1
 10
18.5919
 20
-125.0918
  0
SEQEND
  0
POLYLINE
  8
LAYER_1
 40
0.1764
 41
0.1764
 62
1
 66
1
 10
0
 20
0
 30
0
  0
VERTEX
  8
LAYER_1
 10
16.593
 20
-128.554
  0
VERTEX
  8
LAYER_1
 10
17.5924
 20
-126.8229
  0
SEQEND
  0
POLYLINE
  8
LAYER_1
 40
0.1764
 41
0.1764
 62
1
 66
1
 10
0
 20
0
 30
0
  0
VERTEX
  8
LAYER_1
 10
15.5935
 20
-130.2852
  0
VERTEX
  8
LAYER_1
 10
16.593
 20
-128.554
  0
SEQEND
  0
POLYLINE
  8
LAYER_1
 40
0.1764
 41
0.1764
 62
1
 66
1
 10
0
 20
0
 30
0
  0
VERTEX
  8
LAYER_1
 10
14.594
 20
-132.0163
  0
VERTEX
  8
LAYER_1
 10
15.5935
 20
-130.2852
  0
SEQEND
  0
POLYLINE
  8
LAYER_1
 40
0.1764
 41
0.1764
 62
1
 66
1
 10
0
 20
0
 30
0
  0
VERTEX
  8
LAYER_1
 10
13.5946
 20
-133.7474
  0
VERTEX
  8
LAYER_1
 10
14.594
 20
-132.0163
  0
SEQEND
  0
POLYLINE
  8
LAYER_1
 40
0.1764
 41
0.1764
 62
1
 66
1
 10
0
 20
0
 30
0
  0
VERTEX
  8
LAYER_1
 10
12.5951
 20
-135.4785
  0
VERTEX
  8
LAYER_1
 10
13.5946
 20
-133.7474
  0
SEQEND
  0
POLYLINE
  8
LAYER_1
 40
0.1764
 41
0.1764
 62
1
 66
1
 10
0
 20
0
 30
0
  0
VERTEX
  8
LAYER_1
 10
18.5919
 20
-125.0918
  0
VERTEX
  8
LAYER_1
 10
10.661
 20
-125.0901
  0
SEQEND
  0
POLYLINE
  8
LAYER_1
 40
0.1764
 41
0.1764
 62
1
 66
1
 10
0
 20
0
 30
0
  0
VERTEX
  8
LAYER_1
 10
17.5924
 20
-126.8229
  0
VERTEX
  8
LAYER_1
 10
9.9231
 20
-126.8255
  0
SEQEND
  0
POLYLINE
  8
LAYER_1
 40
0.1764
 41
0.1764
 62
1
 66
1
 10
0
 20
0
 30
0
  0
VERTEX
  8
LAYER_1
 10
16.593
 20
-128.554
  0
VERTEX
  8
LAYER_1
 10
9.0035
 20
-128.5538
  0
SEQEND
  0
POLYLINE
  8
LAYER_1
 40
0.1764
 41
0.1764
 62
1
 66
1
 10
0
 20
0
 30
0
  0
VERTEX
  8
LAYER_1
 10
7.5943
 20
-130.2831
  0
VERTEX
  8
LAYER_1
 10
11.5922
 20
-123.3586
  0
SEQEND
  0
POLYLINE
  8
LAYER_1
 40
0.1764
 41
0.1764
 62
1
 66
1
 10
0
 20
0
 30
0
  0
VERTEX
  8
LAYER_1
 10
12.0891
 20
-123.3619
  0
VERTEX
  8
LAYER_1
 10
11.5922
 20
-123.3586
  0
SEQEND
  0
POLYLINE
  8
LAYER_1
 40
0.1764
 41
0.1764
 62
1
 66
1
 10
0
 20
0
 30
0
  0
VERTEX
  8
LAYER_1
 10
9.9231
 20
-126.8255
  0
VERTEX
  8
LAYER_1
 10
9.5932
 20
-126.8209
  0
SEQEND
  0
POLYLINE
  8
LAYER_1
 40
0.1764
 41
0.1764
 62
1
 66
1
 10
0
 20
0
 30
0
  0
VERTEX
  8
LAYER_1
 10
9.0035
 20
-128.5538
  0
VERTEX
  8
LAYER_1
 10
8.5938
 20
-128.552
  0
SEQEND
  0
POLYLINE
  8
LAYER_1
 40
0.1764
 41
0.1764
 62
1
 66
1
 10
0
 20
0
 30
0
  0
VERTEX
  8
LAYER_1
 10
11.5914
 20
-137.217
  0
VERTEX
  8
LAYER_1
 10
7.5943
 20
-130.2831
  0
SEQEND
  0
POLYLINE
  8
LAYER_1
 40
0.1764
 41
0.1764
 62
1
 66
1
 10
0
 20
0
 30
0
  0
VERTEX
  8
LAYER_1
 10
15.5935
 20
-130.2851
  0
VERTEX
  8
LAYER_1
 10
7.5943
 20
-130.2831
  0
SEQEND
  0
POLYLINE
  8
LAYER_1
 40
0.1764
 41
0.1764
 62
1
 66
1
 10
0
 20
0
 30
0
  0
VERTEX
  8
LAYER_1
 10
14.594
 20
-132.0162
  0
VERTEX
  8
LAYER_1
 10
13.5974
 20
-130.2867
  0
SEQEND
  0
POLYLINE
  8
LAYER_1
 40
0.1764
 41
0.1764
 62
1
 66
1
 10
0
 20
0
 30
0
  0
VERTEX
  8
LAYER_1
 10
13.5946
 20
-133.7474
  0
VERTEX
  8
LAYER_1
 10
11.5939
 20
-130.2841
  0
SEQEND
  0
POLYLINE
  8
LAYER_1
 40
0.1764
 41
0.1764
 62
1
 66
1
 10
0
 20
0
 30
0
  0
VERTEX
  8
LAYER_1
 10
12.5951
 20
-135.4785
  0
VERTEX
  8
LAYER_1
 10
9.5978
 20
-130.2857
  0
SEQEND
  0
TEXT
  8
LAYER_1
 10
13.5
 20
-129.7875
 11
13.5
 21
-129.7875
 40
4.1737
 41
0.5
 50
60.00013103
  1
B
  0
ENDBLK
  0
BLOCK
  8
LAYER_1
  2
AIGNBL0101003B
 70
64
 10
0
 20
0
 30
0
  3
AIGNBL0101003B
  0
INSERT
  8
LAYER_1
  2
AIGNBL0102003C
 10
0
 20
0
 30
0
  0
TEXT
  8
LAYER_1
 10
-11.2584
 20
-113.1861
 11
-11.2584
 21
-113.1861
 40
4.1737
 41
0.5
  1
A
  0
ENDBLK
  0
BLOCK
  8
LAYER_1
  2
AIGNBL0101003D
 70
64
 10
0
 20
0
 30
0
  3
AIGNBL0101003D
  0
POLYLINE
  8
LAYER_1
 40
0.1764
 41
0.1764
 62
1
 66
1
 10
0
 20
0
 30
0
  0
VERTEX
  8
LAYER_1
 10
-1.5607
 20
-115.5729
  0
VERTEX
  8
LAYER_1
 10
-17.5607
 20
-115.5729
  0
VERTEX
  8
LAYER_1
 10
-13.8084
 20
-122.0695
  0
SEQEND
  0
POLYLINE
  8
LAYER_1
 40
0.1764
 41
0.1764
 62
1
 66
1
 10
0
 20
0
 30
0
  0
VERTEX
  8
LAYER_1
 10
-15.5617
 20
-115.5729
  0
VERTEX
  8
LAYER_1
 10
-17.5606
 20
-115.5729
  0
SEQEND
  0
POLYLINE
  8
LAYER_1
 40
0.1764
 41
0.1764
 62
1
 66
1
 10
0
 20
0
 30
0
  0
VERTEX
  8
LAYER_1
 10
-13.5628
 20
-115.5729
  0
VERTEX
  8
LAYER_1
 10
-15.5617
 20
-115.5729
  0
SEQEND
  0
POLYLINE
  8
LAYER_1
 40
0.1764
 41
0.1764
 62
1
 66
1
 10
0
 20
0
 30
0
  0
VERTEX
  8
LAYER_1
 10
-11.5639
 20
-115.5729
  0
VERTEX
  8
LAYER_1
 10
-13.5628
 20
-115.5729
  0
SEQEND
  0
POLYLINE
  8
LAYER_1
 40
0.1764
 41
0.1764
 62
1
 66
1
 10
0
 20
0
 30
0
  0
VERTEX
  8
LAYER_1
 10
-9.5649
 20
-115.5729
  0
VERTEX
  8
LAYER_1
 10
-11.5639
 20
-115.5729
  0
SEQEND
  0
POLYLINE
  8
LAYER_1
 40
0.1764
 41
0.1764
 62
1
 66
1
 10
0
 20
0
 30
0
  0
VERTEX
  8
LAYER_1
 10
-7.566
 20
-115.5729
  0
VERTEX
  8
LAYER_1
 10
-9.5649
 20
-115.5729
  0
SEQEND
  0
POLYLINE
  8
LAYER_1
 40
0.1764
 41
0.1764
 62
1
 66
1
 10
0
 20
0
 30
0
  0
VERTEX
  8
LAYER_1
 10
-5.5671
 20
-115.5729
  0
VERTEX
  8
LAYER_1
 10
-7.566
 20
-115.5729
  0
SEQEND
  0
POLYLINE
  8
LAYER_1
 40
0.1764
 41
0.1764
 62
1
 66
1
 10
0
 20
0
 30
0
  0
VERTEX
  8
LAYER_1
 10
-3.5681
 20
-115.5729
  0
VERTEX
  8
LAYER_1
 10
-5.5671
 20
-115.5729
  0
SEQEND
  0
POLYLINE
  8
LAYER_1
 40
0.1764
 41
0.1764
 62
1
 66
1
 10
0
 20
0
 30
0
  0
VERTEX
  8
LAYER_1
 10
-15.5617
 20
-115.5729
  0
VERTEX
  8
LAYER_1
 10
-11.5978
 20
-122.4421
  0
SEQEND
  0
POLYLINE
  8
LAYER_1
 40
0.1764
 41
0.1764
 62
1
 66
1
 10
0
 20
0
 30
0
  0
VERTEX
  8
LAYER_1
 10
-13.5628
 20
-115.5729
  0
VERTEX
  8
LAYER_1
 10
-9.7259
 20
-122.2135
  0
SEQEND
  0
POLYLINE
  8
LAYER_1
 40
0.1764
 41
0.1764
 62
1
 66
1
 10
0
 20
0
 30
0
  0
VERTEX
  8
LAYER_1
 10
-11.5639
 20
-115.5729
  0
VERTEX
  8
LAYER_1
 10
-7.7693
 20
-122.1457
  0
SEQEND
  0
POLYLINE
  8
LAYER_1
 40
0.1764
 41
0.1764
 62
1
 66
1
 10
0
 20
0
 30
0
  0
VERTEX
  8
LAYER_1
 10
-5.5671
 20
-122.5014
  0
VERTEX
  8
LAYER_1
 10
-13.5628
 20
-122.5014
  0
SEQEND
  0
POLYLINE
  8
LAYER_1
 40
0.1764
 41
0.1764
 62
1
 66
1
 10
0
 20
0
 30
0
  0
VERTEX
  8
LAYER_1
 10
-13.8084
 20
-122.0695
  0
VERTEX
  8
LAYER_1
 10
-13.5628
 20
-122.5014
  0
SEQEND
  0
POLYLINE
  8
LAYER_1
 40
0.1764
 41
0.1764
 62
1
 66
1
 10
0
 20
0
 30
0
  0
VERTEX
  8
LAYER_1
 10
-9.7259
 20
-122.2135
  0
VERTEX
  8
LAYER_1
 10
-9.565
 20
-122.5014
  0
SEQEND
  0
POLYLINE
  8
LAYER_1
 40
0.1764
 41
0.1764
 62
1
 66
1
 10
0
 20
0
 30
0
  0
VERTEX
  8
LAYER_1
 10
-7.7693
 20
-122.1457
  0
VERTEX
  8
LAYER_1
 10
-7.566
 20
-122.5014
  0
SEQEND
  0
POLYLINE
  8
LAYER_1
 40
0.1764
 41
0.1764
 62
1
 66
1
 10
0
 20
0
 30
0
  0
VERTEX
  8
LAYER_1
 10
-1.5608
 20
-115.5729
  0
VERTEX
  8
LAYER_1
 10
-5.5671
 20
-122.5014
  0
SEQEND
  0
POLYLINE
  8
LAYER_1
 40
0.1764
 41
0.1764
 62
1
 66
1
 10
0
 20
0
 30
0
  0
VERTEX
  8
LAYER_1
 10
-9.565
 20
-115.5729
  0
VERTEX
  8
LAYER_1
 10
-5.5671
 20
-122.5014
  0
SEQEND
  0
POLYLINE
  8
LAYER_1
 40
0.1764
 41
0.1764
 62
1
 66
1
 10
0
 20
0
 30
0
  0
VERTEX
  8
LAYER_1
 10
-7.566
 20
-115.5729
  0
VERTEX
  8
LAYER_1
 10
-8.5655
 20
-117.3008
  0
SEQEND
  0
POLYLINE
  8
LAYER_1
 40
0.1764
 41
0.1764
 62
1
 66
1
 10
0
 20
0
 30
0
  0
VERTEX
  8
LAYER_1
 10
-5.5671
 20
-115.5729
  0
VERTEX
  8
LAYER_1
 10
-7.566
 20
-119.0372
  0
SEQEND
  0
POLYLINE
  8
LAYER_1
 40
0.1764
 41
0.1764
 62
1
 66
1
 10
0
 20
0
 30
0
  0
VERTEX
  8
LAYER_1
 10
-3.5682
 20
-115.5729
  0
VERTEX
  8
LAYER_1
 10
-6.5666
 20
-120.7651
  0
SEQEND
  0
TEXT
  8
LAYER_1
 10
-8.7523
 20
-117.4499
 11
-8.7523
 21
-117.4499
 40
4.1737
 41
0.5
 50
180
  1
B
  0
ENDBLK
  0
BLOCK
  8
LAYER_1
  2
AIGNBL0101003E
 70
64
 10
0
 20
0
 30
0
  3
AIGNBL0101003E
  0
INSERT
  8
LAYER_1
  2
AIGNBL0102003F
 10
0
 20
0
 30
0
  0
TEXT
  8
LAYER_1
 10
1.9232
 20
-125.3764
 11
1.9232
 21
-125.3764
 40
4.1737
 41
0.5
 50
119.9998689
  1
A
  0
ENDBLK
  0
BLOCK
  8
LAYER_1
  2
AIGNBL01010040
 70
64
 10
0
 20
0
 30
0
  3
AIGNBL01010040
  0
POLYLINE
  8
LAYER_1
 40
0.1764
 41
0.1764
 62
1
 66
1
 10
0
 20
0
 30
0
  0
VERTEX
  8
LAYER_1
 10
-0.8723
 20
-115.7966
  0
VERTEX
  8
LAYER_1
 10
7.1276
 20
-129.653
  0
VERTEX
  8
LAYER_1
 10
10.8777
 20
-123.1552
  0
SEQEND
  0
POLYLINE
  8
LAYER_1
 40
0.1764
 41
0.1764
 62
1
 66
1
 10
0
 20
0
 30
0
  0
VERTEX
  8
LAYER_1
 10
6.1282
 20
-127.9219
  0
VERTEX
  8
LAYER_1
 10
7.1276
 20
-129.653
  0
SEQEND
  0
POLYLINE
  8
LAYER_1
 40
0.1764
 41
0.1764
 62
1
 66
1
 10
0
 20
0
 30
0
  0
VERTEX
  8
LAYER_1
 10
5.1287
 20
-126.1907
  0
VERTEX
  8
LAYER_1
 10
6.1282
 20
-127.9219
  0
SEQEND
  0
POLYLINE
  8
LAYER_1
 40
0.1764
 41
0.1764
 62
1
 66
1
 10
0
 20
0
 30
0
  0
VERTEX
  8
LAYER_1
 10
4.1292
 20
-124.4596
  0
VERTEX
  8
LAYER_1
 10
5.1287
 20
-126.1907
  0
SEQEND
  0
POLYLINE
  8
LAYER_1
 40
0.1764
 41
0.1764
 62
1
 66
1
 10
0
 20
0
 30
0
  0
VERTEX
  8
LAYER_1
 10
3.1298
 20
-122.7285
  0
VERTEX
  8
LAYER_1
 10
4.1292
 20
-124.4596
  0
SEQEND
  0
POLYLINE
  8
LAYER_1
 40
0.1764
 41
0.1764
 62
1
 66
1
 10
0
 20
0
 30
0
  0
VERTEX
  8
LAYER_1
 10
2.1303
 20
-120.9974
  0
VERTEX
  8
LAYER_1
 10
3.1298
 20
-122.7285
  0
SEQEND
  0
POLYLINE
  8
LAYER_1
 40
0.1764
 41
0.1764
 62
1
 66
1
 10
0
 20
0
 30
0
  0
VERTEX
  8
LAYER_1
 10
1.1308
 20
-119.2662
  0
VERTEX
  8
LAYER_1
 10
2.1303
 20
-120.9974
  0
SEQEND
  0
POLYLINE
  8
LAYER_1
 40
0.1764
 41
0.1764
 62
1
 66
1
 10
0
 20
0
 30
0
  0
VERTEX
  8
LAYER_1
 10
0.1314
 20
-117.5351
  0
VERTEX
  8
LAYER_1
 10
1.1308
 20
-119.2662
  0
SEQEND
  0
POLYLINE
  8
LAYER_1
 40
0.1764
 41
0.1764
 62
1
 66
1
 10
0
 20
0
 30
0
  0
VERTEX
  8
LAYER_1
 10
6.1282
 20
-127.9219
  0
VERTEX
  8
LAYER_1
 10
10.0951
 20
-121.0544
  0
SEQEND
  0
POLYLINE
  8
LAYER_1
 40
0.1764
 41
0.1764
 62
1
 66
1
 10
0
 20
0
 30
0
  0
VERTEX
  8
LAYER_1
 10
5.1287
 20
-126.1908
  0
VERTEX
  8
LAYER_1
 10
8.9611
 20
-119.5476
  0
SEQEND
  0
POLYLINE
  8
LAYER_1
 40
0.1764
 41
0.1764
 62
1
 66
1
 10
0
 20
0
 30
0
  0
VERTEX
  8
LAYER_1
 10
4.1292
 20
-124.4596
  0
VERTEX
  8
LAYER_1
 10
7.9241
 20
-117.8871
  0
SEQEND
  0
POLYLINE
  8
LAYER_1
 40
0.1764
 41
0.1764
 62
1
 66
1
 10
0
 20
0
 30
0
  0
VERTEX
  8
LAYER_1
 10
7.1311
 20
-115.802
  0
VERTEX
  8
LAYER_1
 10
11.129
 20
-122.7265
  0
SEQEND
  0
POLYLINE
  8
LAYER_1
 40
0.1764
 41
0.1764
 62
1
 66
1
 10
0
 20
0
 30
0
  0
VERTEX
  8
LAYER_1
 10
10.8777
 20
-123.1552
  0
VERTEX
  8
LAYER_1
 10
11.129
 20
-122.7265
  0
SEQEND
  0
POLYLINE
  8
LAYER_1
 40
0.1764
 41
0.1764
 62
1
 66
1
 10
0
 20
0
 30
0
  0
VERTEX
  8
LAYER_1
 10
8.9611
 20
-119.5476
  0
VERTEX
  8
LAYER_1
 10
9.13
 20
-119.2643
  0
SEQEND
  0
POLYLINE
  8
LAYER_1
 40
0.1764
 41
0.1764
 62
1
 66
1
 10
0
 20
0
 30
0
  0
VERTEX
  8
LAYER_1
 10
7.9241
 20
-117.8871
  0
VERTEX
  8
LAYER_1
 10
8.1306
 20
-117.5331
  0
SEQEND
  0
POLYLINE
  8
LAYER_1
 40
0.1764
 41
0.1764
 62
1
 66
1
 10
0
 20
0
 30
0
  0
VERTEX
  8
LAYER_1
 10
-0.8723
 20
-115.7967
  0
VERTEX
  8
LAYER_1
 10
7.1311
 20
-115.802
  0
SEQEND
  0
POLYLINE
  8
LAYER_1
 40
0.1764
 41
0.1764
 62
1
 66
1
 10
0
 20
0
 30
0
  0
VERTEX
  8
LAYER_1
 10
3.1298
 20
-122.7285
  0
VERTEX
  8
LAYER_1
 10
7.1311
 20
-115.802
  0
SEQEND
  0
POLYLINE
  8
LAYER_1
 40
0.1764
 41
0.1764
 62
1
 66
1
 10
0
 20
0
 30
0
  0
VERTEX
  8
LAYER_1
 10
2.1303
 20
-120.9974
  0
VERTEX
  8
LAYER_1
 10
4.1265
 20
-120.999
  0
SEQEND
  0
POLYLINE
  8
LAYER_1
 40
0.1764
 41
0.1764
 62
1
 66
1
 10
0
 20
0
 30
0
  0
VERTEX
  8
LAYER_1
 10
1.1309
 20
-119.2663
  0
VERTEX
  8
LAYER_1
 10
5.1305
 20
-119.2653
  0
SEQEND
  0
POLYLINE
  8
LAYER_1
 40
0.1764
 41
0.1764
 62
1
 66
1
 10
0
 20
0
 30
0
  0
VERTEX
  8
LAYER_1
 10
0.1314
 20
-117.5352
  0
VERTEX
  8
LAYER_1
 10
6.1271
 20
-117.5358
  0
SEQEND
  0
TEXT
  8
LAYER_1
 10
4.7157
 20
-120.9997
 11
4.7157
 21
-120.9997
 40
4.1737
 41
0.5
 50
299.999869
  1
B
  0
ENDBLK
  0
BLOCK
  8
LAYER_1
  2
AIGNBL01010041
 70
64
 10
0
 20
0
 30
0
  3
AIGNBL01010041
  0
INSERT
  8
LAYER_1
  2
AIGNBL01020042
 10
0
 20
0
 30
0
  0
TEXT
  8
LAYER_1
 10
5.8908
 20
-107.9845
 11
5.8908
 21
-107.9845
 40
4.1737
 41
0.5
 50
240.0001311
  1
A
  0
ENDBLK
  0
BLOCK
  8
LAYER_1
  2
AIGNBL01010043
 70
64
 10
0
 20
0
 30
0
  3
AIGNBL01010043
  0
POLYLINE
  8
LAYER_1
 40
0.1764
 41
0.1764
 62
1
 66
1
 10
0
 20
0
 30
0
  0
VERTEX
  8
LAYER_1
 10
-1.0111
 20
-115.1763
  0
VERTEX
  8
LAYER_1
 10
6.9888
 20
-101.32
  0
VERTEX
  8
LAYER_1
 10
-0.5134
 20
-101.3213
  0
SEQEND
  0
POLYLINE
  8
LAYER_1
 40
0.1764
 41
0.1764
 62
1
 66
1
 10
0
 20
0
 30
0
  0
VERTEX
  8
LAYER_1
 10
5.9894
 20
-103.0511
  0
VERTEX
  8
LAYER_1
 10
6.9888
 20
-101.32
  0
SEQEND
  0
POLYLINE
  8
LAYER_1
 40
0.1764
 41
0.1764
 62
1
 66
1
 10
0
 20
0
 30
0
  0
VERTEX
  8
LAYER_1
 10
4.9899
 20
-104.7822
  0
VERTEX
  8
LAYER_1
 10
5.9894
 20
-103.0511
  0
SEQEND
  0
POLYLINE
  8
LAYER_1
 40
0.1764
 41
0.1764
 62
1
 66
1
 10
0
 20
0
 30
0
  0
VERTEX
  8
LAYER_1
 10
3.9904
 20
-106.5134
  0
VERTEX
  8
LAYER_1
 10
4.9899
 20
-104.7822
  0
SEQEND
  0
POLYLINE
  8
LAYER_1
 40
0.1764
 41
0.1764
 62
1
 66
1
 10
0
 20
0
 30
0
  0
VERTEX
  8
LAYER_1
 10
2.991
 20
-108.2445
  0
VERTEX
  8
LAYER_1
 10
3.9904
 20
-106.5134
  0
SEQEND
  0
POLYLINE
  8
LAYER_1
 40
0.1764
 41
0.1764
 62
1
 66
1
 10
0
 20
0
 30
0
  0
VERTEX
  8
LAYER_1
 10
1.9915
 20
-109.9756
  0
VERTEX
  8
LAYER_1
 10
2.991
 20
-108.2445
  0
SEQEND
  0
POLYLINE
  8
LAYER_1
 40
0.1764
 41
0.1764
 62
1
 66
1
 10
0
 20
0
 30
0
  0
VERTEX
  8
LAYER_1
 10
0.992
 20
-111.7067
  0
VERTEX
  8
LAYER_1
 10
1.9915
 20
-109.9756
  0
SEQEND
  0
POLYLINE
  8
LAYER_1
 40
0.1764
 41
0.1764
 62
1
 66
1
 10
0
 20
0
 30
0
  0
VERTEX
  8
LAYER_1
 10
-0.0074
 20
-113.4379
  0
VERTEX
  8
LAYER_1
 10
0.992
 20
-111.7067
  0
SEQEND
  0
POLYLINE
  8
LAYER_1
 40
0.1764
 41
0.1764
 62
1
 66
1
 10
0
 20
0
 30
0
  0
VERTEX
  8
LAYER_1
 10
5.9894
 20
-103.0511
  0
VERTEX
  8
LAYER_1
 10
-1.9415
 20
-103.0494
  0
SEQEND
  0
POLYLINE
  8
LAYER_1
 40
0.1764
 41
0.1764
 62
1
 66
1
 10
0
 20
0
 30
0
  0
VERTEX
  8
LAYER_1
 10
4.9899
 20
-104.7822
  0
VERTEX
  8
LAYER_1
 10
-2.6794
 20
-104.7848
  0
SEQEND
  0
POLYLINE
  8
LAYER_1
 40
0.1764
 41
0.1764
 62
1
 66
1
 10
0
 20
0
 30
0
  0
VERTEX
  8
LAYER_1
 10
3.9904
 20
-106.5133
  0
VERTEX
  8
LAYER_1
 10
-3.599
 20
-106.5132
  0
SEQEND
  0
POLYLINE
  8
LAYER_1
 40
0.1764
 41
0.1764
 62
1
 66
1
 10
0
 20
0
 30
0
  0
VERTEX
  8
LAYER_1
 10
-5.0082
 20
-108.2425
  0
VERTEX
  8
LAYER_1
 10
-1.0103
 20
-101.318
  0
SEQEND
  0
POLYLINE
  8
LAYER_1
 40
0.1764
 41
0.1764
 62
1
 66
1
 10
0
 20
0
 30
0
  0
VERTEX
  8
LAYER_1
 10
-0.5134
 20
-101.3212
  0
VERTEX
  8
LAYER_1
 10
-1.0103
 20
-101.318
  0
SEQEND
  0
POLYLINE
  8
LAYER_1
 40
0.1764
 41
0.1764
 62
1
 66
1
 10
0
 20
0
 30
0
  0
VERTEX
  8
LAYER_1
 10
-2.6794
 20
-104.7848
  0
VERTEX
  8
LAYER_1
 10
-3.0093
 20
-104.7802
  0
SEQEND
  0
POLYLINE
  8
LAYER_1
 40
0.1764
 41
0.1764
 62
1
 66
1
 10
0
 20
0
 30
0
  0
VERTEX
  8
LAYER_1
 10
-3.599
 20
-106.5132
  0
VERTEX
  8
LAYER_1
 10
-4.0087
 20
-106.5113
  0
SEQEND
  0
POLYLINE
  8
LAYER_1
 40
0.1764
 41
0.1764
 62
1
 66
1
 10
0
 20
0
 30
0
  0
VERTEX
  8
LAYER_1
 10
-1.0111
 20
-115.1763
  0
VERTEX
  8
LAYER_1
 10
-5.0082
 20
-108.2425
  0
SEQEND
  0
POLYLINE
  8
LAYER_1
 40
0.1764
 41
0.1764
 62
1
 66
1
 10
0
 20
0
 30
0
  0
VERTEX
  8
LAYER_1
 10
2.991
 20
-108.2445
  0
VERTEX
  8
LAYER_1
 10
-5.0082
 20
-108.2425
  0
SEQEND
  0
POLYLINE
  8
LAYER_1
 40
0.1764
 41
0.1764
 62
1
 66
1
 10
0
 20
0
 30
0
  0
VERTEX
  8
LAYER_1
 10
1.9915
 20
-109.9756
  0
VERTEX
  8
LAYER_1
 10
0.9949
 20
-108.2461
  0
SEQEND
  0
POLYLINE
  8
LAYER_1
 40
0.1764
 41
0.1764
 62
1
 66
1
 10
0
 20
0
 30
0
  0
VERTEX
  8
LAYER_1
 10
0.9921
 20
-111.7067
  0
VERTEX
  8
LAYER_1
 10
-1.0086
 20
-108.2435
  0
SEQEND
  0
POLYLINE
  8
LAYER_1
 40
0.1764
 41
0.1764
 62
1
 66
1
 10
0
 20
0
 30
0
  0
VERTEX
  8
LAYER_1
 10
-0.0074
 20
-113.4378
  0
VERTEX
  8
LAYER_1
 10
-3.0047
 20
-108.2451
  0
SEQEND
  0
TEXT
  8
LAYER_1
 10
0.8975
 20
-107.7468
 11
0.8975
 21
-107.7468
 40
4.1737
 41
0.5
 50
60.00013103
  1
B
  0
ENDBLK
  0
BLOCK
  8
LAYER_1
  2
AIGNBL01010044
 70
64
 10
0
 20
0
 30
0
  3
AIGNBL01010044
  0
INSERT
  8
LAYER_1
  2
AIGNBL01020045
 10
0
 20
0
 30
0
  0
TEXT
  8
LAYER_1
 10
14.3746
 20
-157.2612
 11
14.3746
 21
-157.2612
 40
4.1737
 41
0.5
  1
A
  0
ENDBLK
  0
BLOCK
  8
LAYER_1
  2
AIGNBL01010046
 70
64
 10
0
 20
0
 30
0
  3
AIGNBL01010046
  0
POLYLINE
  8
LAYER_1
 40
0.1764
 41
0.1764
 62
1
 66
1
 10
0
 20
0
 30
0
  0
VERTEX
  8
LAYER_1
 10
24.0723
 20
-159.6481
  0
VERTEX
  8
LAYER_1
 10
8.0723
 20
-159.6481
  0
VERTEX
  8
LAYER_1
 10
11.8246
 20
-166.1446
  0
SEQEND
  0
POLYLINE
  8
LAYER_1
 40
0.1764
 41
0.1764
 62
1
 66
1
 10
0
 20
0
 30
0
  0
VERTEX
  8
LAYER_1
 10
10.0713
 20
-159.6481
  0
VERTEX
  8
LAYER_1
 10
8.0723
 20
-159.6481
  0
SEQEND
  0
POLYLINE
  8
LAYER_1
 40
0.1764
 41
0.1764
 62
1
 66
1
 10
0
 20
0
 30
0
  0
VERTEX
  8
LAYER_1
 10
12.0702
 20
-159.6481
  0
VERTEX
  8
LAYER_1
 10
10.0713
 20
-159.6481
  0
SEQEND
  0
POLYLINE
  8
LAYER_1
 40
0.1764
 41
0.1764
 62
1
 66
1
 10
0
 20
0
 30
0
  0
VERTEX
  8
LAYER_1
 10
14.0691
 20
-159.6481
  0
VERTEX
  8
LAYER_1
 10
12.0702
 20
-159.6481
  0
SEQEND
  0
POLYLINE
  8
LAYER_1
 40
0.1764
 41
0.1764
 62
1
 66
1
 10
0
 20
0
 30
0
  0
VERTEX
  8
LAYER_1
 10
16.068
 20
-159.6481
  0
VERTEX
  8
LAYER_1
 10
14.0691
 20
-159.6481
  0
SEQEND
  0
POLYLINE
  8
LAYER_1
 40
0.1764
 41
0.1764
 62
1
 66
1
 10
0
 20
0
 30
0
  0
VERTEX
  8
LAYER_1
 10
18.067
 20
-159.6481
  0
VERTEX
  8
LAYER_1
 10
16.068
 20
-159.6481
  0
SEQEND
  0
POLYLINE
  8
LAYER_1
 40
0.1764
 41
0.1764
 62
1
 66
1
 10
0
 20
0
 30
0
  0
VERTEX
  8
LAYER_1
 10
20.0659
 20
-159.6481
  0
VERTEX
  8
LAYER_1
 10
18.067
 20
-159.6481
  0
SEQEND
  0
POLYLINE
  8
LAYER_1
 40
0.1764
 41
0.1764
 62
1
 66
1
 10
0
 20
0
 30
0
  0
VERTEX
  8
LAYER_1
 10
22.0648
 20
-159.6481
  0
VERTEX
  8
LAYER_1
 10
20.0659
 20
-159.6481
  0
SEQEND
  0
POLYLINE
  8
LAYER_1
 40
0.1764
 41
0.1764
 62
1
 66
1
 10
0
 20
0
 30
0
  0
VERTEX
  8
LAYER_1
 10
10.0712
 20
-159.6481
  0
VERTEX
  8
LAYER_1
 10
14.0352
 20
-166.5173
  0
SEQEND
  0
POLYLINE
  8
LAYER_1
 40
0.1764
 41
0.1764
 62
1
 66
1
 10
0
 20
0
 30
0
  0
VERTEX
  8
LAYER_1
 10
12.0702
 20
-159.6481
  0
VERTEX
  8
LAYER_1
 10
15.9071
 20
-166.2886
  0
SEQEND
  0
POLYLINE
  8
LAYER_1
 40
0.1764
 41
0.1764
 62
1
 66
1
 10
0
 20
0
 30
0
  0
VERTEX
  8
LAYER_1
 10
14.0691
 20
-159.6481
  0
VERTEX
  8
LAYER_1
 10
17.8637
 20
-166.2208
  0
SEQEND
  0
POLYLINE
  8
LAYER_1
 40
0.1764
 41
0.1764
 62
1
 66
1
 10
0
 20
0
 30
0
  0
VERTEX
  8
LAYER_1
 10
20.0659
 20
-166.5766
  0
VERTEX
  8
LAYER_1
 10
12.0702
 20
-166.5766
  0
SEQEND
  0
POLYLINE
  8
LAYER_1
 40
0.1764
 41
0.1764
 62
1
 66
1
 10
0
 20
0
 30
0
  0
VERTEX
  8
LAYER_1
 10
11.8245
 20
-166.1446
  0
VERTEX
  8
LAYER_1
 10
12.0702
 20
-166.5766
  0
SEQEND
  0
POLYLINE
  8
LAYER_1
 40
0.1764
 41
0.1764
 62
1
 66
1
 10
0
 20
0
 30
0
  0
VERTEX
  8
LAYER_1
 10
15.9071
 20
-166.2886
  0
VERTEX
  8
LAYER_1
 10
16.068
 20
-166.5766
  0
SEQEND
  0
POLYLINE
  8
LAYER_1
 40
0.1764
 41
0.1764
 62
1
 66
1
 10
0
 20
0
 30
0
  0
VERTEX
  8
LAYER_1
 10
17.8637
 20
-166.2208
  0
VERTEX
  8
LAYER_1
 10
18.067
 20
-166.5766
  0
SEQEND
  0
POLYLINE
  8
LAYER_1
 40
0.1764
 41
0.1764
 62
1
 66
1
 10
0
 20
0
 30
0
  0
VERTEX
  8
LAYER_1
 10
24.0722
 20
-159.6481
  0
VERTEX
  8
LAYER_1
 10
20.0659
 20
-166.5766
  0
SEQEND
  0
POLYLINE
  8
LAYER_1
 40
0.1764
 41
0.1764
 62
1
 66
1
 10
0
 20
0
 30
0
  0
VERTEX
  8
LAYER_1
 10
16.068
 20
-159.6481
  0
VERTEX
  8
LAYER_1
 10
20.0659
 20
-166.5766
  0
SEQEND
  0
POLYLINE
  8
LAYER_1
 40
0.1764
 41
0.1764
 62
1
 66
1
 10
0
 20
0
 30
0
  0
VERTEX
  8
LAYER_1
 10
18.0669
 20
-159.6481
  0
VERTEX
  8
LAYER_1
 10
17.0675
 20
-161.376
  0
SEQEND
  0
POLYLINE
  8
LAYER_1
 40
0.1764
 41
0.1764
 62
1
 66
1
 10
0
 20
0
 30
0
  0
VERTEX
  8
LAYER_1
 10
20.0659
 20
-159.6481
  0
VERTEX
  8
LAYER_1
 10
18.0669
 20
-163.1123
  0
SEQEND
  0
POLYLINE
  8
LAYER_1
 40
0.1764
 41
0.1764
 62
1
 66
1
 10
0
 20
0
 30
0
  0
VERTEX
  8
LAYER_1
 10
22.0648
 20
-159.6481
  0
VERTEX
  8
LAYER_1
 10
19.0664
 20
-164.8402
  0
SEQEND
  0
TEXT
  8
LAYER_1
 10
16.8806
 20
-161.525
 11
16.8806
 21
-161.525
 40
4.1737
 41
0.5
 50
180
  1
B
  0
ENDBLK
  0
BLOCK
  8
LAYER_1
  2
AIGNBL01010047
 70
64
 10
0
 20
0
 30
0
  3
AIGNBL01010047
  0
INSERT
  8
LAYER_1
  2
AIGNBL01020048
 10
0
 20
0
 30
0
  0
TEXT
  8
LAYER_1
 10
27.5562
 20
-169.4516
 11
27.5562
 21
-169.4516
 40
4.1737
 41
0.5
 50
119.9998689
  1
A
  0
ENDBLK
  0
BLOCK
  8
LAYER_1
  2
AIGNBL01010049
 70
64
 10
0
 20
0
 30
0
  3
AIGNBL01010049
  0
POLYLINE
  8
LAYER_1
 40
0.1764
 41
0.1764
 62
1
 66
1
 10
0
 20
0
 30
0
  0
VERTEX
  8
LAYER_1
 10
24.7606
 20
-159.8718
  0
VERTEX
  8
LAYER_1
 10
32.7606
 20
-173.7281
  0
VERTEX
  8
LAYER_1
 10
36.5106
 20
-167.2303
  0
SEQEND
  0
POLYLINE
  8
LAYER_1
 40
0.1764
 41
0.1764
 62
1
 66
1
 10
0
 20
0
 30
0
  0
VERTEX
  8
LAYER_1
 10
31.7611
 20
-171.997
  0
VERTEX
  8
LAYER_1
 10
32.7606
 20
-173.7281
  0
SEQEND
  0
POLYLINE
  8
LAYER_1
 40
0.1764
 41
0.1764
 62
1
 66
1
 10
0
 20
0
 30
0
  0
VERTEX
  8
LAYER_1
 10
30.7617
 20
-170.2659
  0
VERTEX
  8
LAYER_1
 10
31.7611
 20
-171.997
  0
SEQEND
  0
POLYLINE
  8
LAYER_1
 40
0.1764
 41
0.1764
 62
1
 66
1
 10
0
 20
0
 30
0
  0
VERTEX
  8
LAYER_1
 10
29.7622
 20
-168.5348
  0
VERTEX
  8
LAYER_1
 10
30.7617
 20
-170.2659
  0
SEQEND
  0
POLYLINE
  8
LAYER_1
 40
0.1764
 41
0.1764
 62
1
 66
1
 10
0
 20
0
 30
0
  0
VERTEX
  8
LAYER_1
 10
28.7627
 20
-166.8036
  0
VERTEX
  8
LAYER_1
 10
29.7622
 20
-168.5348
  0
SEQEND
  0
POLYLINE
  8
LAYER_1
 40
0.1764
 41
0.1764
 62
1
 66
1
 10
0
 20
0
 30
0
  0
VERTEX
  8
LAYER_1
 10
27.7633
 20
-165.0725
  0
VERTEX
  8
LAYER_1
 10
28.7627
 20
-166.8036
  0
SEQEND
  0
POLYLINE
  8
LAYER_1
 40
0.1764
 41
0.1764
 62
1
 66
1
 10
0
 20
0
 30
0
  0
VERTEX
  8
LAYER_1
 10
26.7638
 20
-163.3414
  0
VERTEX
  8
LAYER_1
 10
27.7633
 20
-165.0725
  0
SEQEND
  0
POLYLINE
  8
LAYER_1
 40
0.1764
 41
0.1764
 62
1
 66
1
 10
0
 20
0
 30
0
  0
VERTEX
  8
LAYER_1
 10
25.7643
 20
-161.6103
  0
VERTEX
  8
LAYER_1
 10
26.7638
 20
-163.3414
  0
SEQEND
  0
POLYLINE
  8
LAYER_1
 40
0.1764
 41
0.1764
 62
1
 66
1
 10
0
 20
0
 30
0
  0
VERTEX
  8
LAYER_1
 10
31.7612
 20
-171.997
  0
VERTEX
  8
LAYER_1
 10
35.7281
 20
-165.1295
  0
SEQEND
  0
POLYLINE
  8
LAYER_1
 40
0.1764
 41
0.1764
 62
1
 66
1
 10
0
 20
0
 30
0
  0
VERTEX
  8
LAYER_1
 10
30.7617
 20
-170.2659
  0
VERTEX
  8
LAYER_1
 10
34.5941
 20
-163.6228
  0
SEQEND
  0
POLYLINE
  8
LAYER_1
 40
0.1764
 41
0.1764
 62
1
 66
1
 10
0
 20
0
 30
0
  0
VERTEX
  8
LAYER_1
 10
29.7622
 20
-168.5348
  0
VERTEX
  8
LAYER_1
 10
33.5571
 20
-161.9622
  0
SEQEND
  0
POLYLINE
  8
LAYER_1
 40
0.1764
 41
0.1764
 62
1
 66
1
 10
0
 20
0
 30
0
  0
VERTEX
  8
LAYER_1
 10
32.7641
 20
-159.8771
  0
VERTEX
  8
LAYER_1
 10
36.762
 20
-166.8017
  0
SEQEND
  0
POLYLINE
  8
LAYER_1
 40
0.1764
 41
0.1764
 62
1
 66
1
 10
0
 20
0
 30
0
  0
VERTEX
  8
LAYER_1
 10
36.5107
 20
-167.2304
  0
VERTEX
  8
LAYER_1
 10
36.762
 20
-166.8017
  0
SEQEND
  0
POLYLINE
  8
LAYER_1
 40
0.1764
 41
0.1764
 62
1
 66
1
 10
0
 20
0
 30
0
  0
VERTEX
  8
LAYER_1
 10
34.5941
 20
-163.6228
  0
VERTEX
  8
LAYER_1
 10
34.763
 20
-163.3394
  0
SEQEND
  0
POLYLINE
  8
LAYER_1
 40
0.1764
 41
0.1764
 62
1
 66
1
 10
0
 20
0
 30
0
  0
VERTEX
  8
LAYER_1
 10
33.5571
 20
-161.9622
  0
VERTEX
  8
LAYER_1
 10
33.7636
 20
-161.6083
  0
SEQEND
  0
POLYLINE
  8
LAYER_1
 40
0.1764
 41
0.1764
 62
1
 66
1
 10
0
 20
0
 30
0
  0
VERTEX
  8
LAYER_1
 10
24.7607
 20
-159.8718
  0
VERTEX
  8
LAYER_1
 10
32.7641
 20
-159.8772
  0
SEQEND
  0
POLYLINE
  8
LAYER_1
 40
0.1764
 41
0.1764
 62
1
 66
1
 10
0
 20
0
 30
0
  0
VERTEX
  8
LAYER_1
 10
28.7628
 20
-166.8037
  0
VERTEX
  8
LAYER_1
 10
32.7641
 20
-159.8772
  0
SEQEND
  0
POLYLINE
  8
LAYER_1
 40
0.1764
 41
0.1764
 62
1
 66
1
 10
0
 20
0
 30
0
  0
VERTEX
  8
LAYER_1
 10
27.7633
 20
-165.0725
  0
VERTEX
  8
LAYER_1
 10
29.7594
 20
-165.0742
  0
SEQEND
  0
POLYLINE
  8
LAYER_1
 40
0.1764
 41
0.1764
 62
1
 66
1
 10
0
 20
0
 30
0
  0
VERTEX
  8
LAYER_1
 10
26.7638
 20
-163.3414
  0
VERTEX
  8
LAYER_1
 10
30.7634
 20
-163.3404
  0
SEQEND
  0
POLYLINE
  8
LAYER_1
 40
0.1764
 41
0.1764
 62
1
 66
1
 10
0
 20
0
 30
0
  0
VERTEX
  8
LAYER_1
 10
25.7644
 20
-161.6103
  0
VERTEX
  8
LAYER_1
 10
31.7601
 20
-161.6109
  0
SEQEND
  0
TEXT
  8
LAYER_1
 10
30.3485
 20
-165.0748
 11
30.3485
 21
-165.0748
 40
4.1737
 41
0.5
 50
299.999869
  1
B
  0
ENDBLK
  0
BLOCK
  8
LAYER_1
  2
AIGNBL0101004A
 70
64
 10
0
 20
0
 30
0
  3
AIGNBL0101004A
  0
INSERT
  8
LAYER_1
  2
AIGNBL0102004B
 10
0
 20
0
 30
0
  0
TEXT
  8
LAYER_1
 10
31.5237
 20
-152.0595
 11
31.5237
 21
-152.0595
 40
4.1737
 41
0.5
 50
240.0001311
  1
A
  0
ENDBLK
  0
BLOCK
  8
LAYER_1
  2
AIGNBL0101004C
 70
64
 10
0
 20
0
 30
0
  3
AIGNBL0101004C
  0
POLYLINE
  8
LAYER_1
 40
0.1764
 41
0.1764
 62
1
 66
1
 10
0
 20
0
 30
0
  0
VERTEX
  8
LAYER_1
 10
24.6218
 20
-159.2515
  0
VERTEX
  8
LAYER_1
 10
32.6218
 20
-145.3951
  0
VERTEX
  8
LAYER_1
 10
25.1195
 20
-145.3964
  0
SEQEND
  0
POLYLINE
  8
LAYER_1
 40
0.1764
 41
0.1764
 62
1
 66
1
 10
0
 20
0
 30
0
  0
VERTEX
  8
LAYER_1
 10
31.6223
 20
-147.1263
  0
VERTEX
  8
LAYER_1
 10
32.6218
 20
-145.3951
  0
SEQEND
  0
POLYLINE
  8
LAYER_1
 40
0.1764
 41
0.1764
 62
1
 66
1
 10
0
 20
0
 30
0
  0
VERTEX
  8
LAYER_1
 10
30.6229
 20
-148.8574
  0
VERTEX
  8
LAYER_1
 10
31.6223
 20
-147.1263
  0
SEQEND
  0
POLYLINE
  8
LAYER_1
 40
0.1764
 41
0.1764
 62
1
 66
1
 10
0
 20
0
 30
0
  0
VERTEX
  8
LAYER_1
 10
29.6234
 20
-150.5885
  0
VERTEX
  8
LAYER_1
 10
30.6229
 20
-148.8574
  0
SEQEND
  0
POLYLINE
  8
LAYER_1
 40
0.1764
 41
0.1764
 62
1
 66
1
 10
0
 20
0
 30
0
  0
VERTEX
  8
LAYER_1
 10
28.6239
 20
-152.3196
  0
VERTEX
  8
LAYER_1
 10
29.6234
 20
-150.5885
  0
SEQEND
  0
POLYLINE
  8
LAYER_1
 40
0.1764
 41
0.1764
 62
1
 66
1
 10
0
 20
0
 30
0
  0
VERTEX
  8
LAYER_1
 10
27.6245
 20
-154.0508
  0
VERTEX
  8
LAYER_1
 10
28.6239
 20
-152.3196
  0
SEQEND
  0
POLYLINE
  8
LAYER_1
 40
0.1764
 41
0.1764
 62
1
 66
1
 10
0
 20
0
 30
0
  0
VERTEX
  8
LAYER_1
 10
26.625
 20
-155.7819
  0
VERTEX
  8
LAYER_1
 10
27.6245
 20
-154.0508
  0
SEQEND
  0
POLYLINE
  8
LAYER_1
 40
0.1764
 41
0.1764
 62
1
 66
1
 10
0
 20
0
 30
0
  0
VERTEX
  8
LAYER_1
 10
25.6256
 20
-157.513
  0
VERTEX
  8
LAYER_1
 10
26.625
 20
-155.7819
  0
SEQEND
  0
POLYLINE
  8
LAYER_1
 40
0.1764
 41
0.1764
 62
1
 66
1
 10
0
 20
0
 30
0
  0
VERTEX
  8
LAYER_1
 10
31.6224
 20
-147.1262
  0
VERTEX
  8
LAYER_1
 10
23.6914
 20
-147.1245
  0
SEQEND
  0
POLYLINE
  8
LAYER_1
 40
0.1764
 41
0.1764
 62
1
 66
1
 10
0
 20
0
 30
0
  0
VERTEX
  8
LAYER_1
 10
30.6229
 20
-148.8574
  0
VERTEX
  8
LAYER_1
 10
22.9536
 20
-148.86
  0
SEQEND
  0
POLYLINE
  8
LAYER_1
 40
0.1764
 41
0.1764
 62
1
 66
1
 10
0
 20
0
 30
0
  0
VERTEX
  8
LAYER_1
 10
29.6234
 20
-150.5885
  0
VERTEX
  8
LAYER_1
 10
22.034
 20
-150.5883
  0
SEQEND
  0
POLYLINE
  8
LAYER_1
 40
0.1764
 41
0.1764
 62
1
 66
1
 10
0
 20
0
 30
0
  0
VERTEX
  8
LAYER_1
 10
20.6248
 20
-152.3176
  0
VERTEX
  8
LAYER_1
 10
24.6226
 20
-145.3931
  0
SEQEND
  0
POLYLINE
  8
LAYER_1
 40
0.1764
 41
0.1764
 62
1
 66
1
 10
0
 20
0
 30
0
  0
VERTEX
  8
LAYER_1
 10
25.1195
 20
-145.3964
  0
VERTEX
  8
LAYER_1
 10
24.6226
 20
-145.3931
  0
SEQEND
  0
POLYLINE
  8
LAYER_1
 40
0.1764
 41
0.1764
 62
1
 66
1
 10
0
 20
0
 30
0
  0
VERTEX
  8
LAYER_1
 10
22.9536
 20
-148.86
  0
VERTEX
  8
LAYER_1
 10
22.6237
 20
-148.8554
  0
SEQEND
  0
POLYLINE
  8
LAYER_1
 40
0.1764
 41
0.1764
 62
1
 66
1
 10
0
 20
0
 30
0
  0
VERTEX
  8
LAYER_1
 10
22.034
 20
-150.5883
  0
VERTEX
  8
LAYER_1
 10
21.6242
 20
-150.5865
  0
SEQEND
  0
POLYLINE
  8
LAYER_1
 40
0.1764
 41
0.1764
 62
1
 66
1
 10
0
 20
0
 30
0
  0
VERTEX
  8
LAYER_1
 10
24.6219
 20
-159.2514
  0
VERTEX
  8
LAYER_1
 10
20.6248
 20
-152.3176
  0
SEQEND
  0
POLYLINE
  8
LAYER_1
 40
0.1764
 41
0.1764
 62
1
 66
1
 10
0
 20
0
 30
0
  0
VERTEX
  8
LAYER_1
 10
28.624
 20
-152.3196
  0
VERTEX
  8
LAYER_1
 10
20.6248
 20
-152.3176
  0
SEQEND
  0
POLYLINE
  8
LAYER_1
 40
0.1764
 41
0.1764
 62
1
 66
1
 10
0
 20
0
 30
0
  0
VERTEX
  8
LAYER_1
 10
27.6245
 20
-154.0507
  0
VERTEX
  8
LAYER_1
 10
26.6278
 20
-152.3212
  0
SEQEND
  0
POLYLINE
  8
LAYER_1
 40
0.1764
 41
0.1764
 62
1
 66
1
 10
0
 20
0
 30
0
  0
VERTEX
  8
LAYER_1
 10
26.625
 20
-155.7819
  0
VERTEX
  8
LAYER_1
 10
24.6244
 20
-152.3186
  0
SEQEND
  0
POLYLINE
  8
LAYER_1
 40
0.1764
 41
0.1764
 62
1
 66
1
 10
0
 20
0
 30
0
  0
VERTEX
  8
LAYER_1
 10
25.6256
 20
-157.513
  0
VERTEX
  8
LAYER_1
 10
22.6282
 20
-152.3202
  0
SEQEND
  0
TEXT
  8
LAYER_1
 10
26.5305
 20
-151.822
 11
26.5305
 21
-151.822
 40
4.1737
 41
0.5
 50
60.00013103
  1
B
  0
ENDBLK
  0
BLOCK
  8
LAYER_1
  2
AIGNBL0101004D
 70
64
 10
0
 20
0
 30
0
  3
AIGNBL0101004D
  0
INSERT
  8
LAYER_1
  2
AIGNBL0102004E
 10
0
 20
0
 30
0
  0
TEXT
  8
LAYER_1
 10
52.8164
 20
-135.7294
 11
52.8164
 21
-135.7294
 40
4.1737
 41
0.5
  1
A
  0
ENDBLK
  0
BLOCK
  8
LAYER_1
  2
AIGNBL0101004F
 70
64
 10
0
 20
0
 30
0
  3
AIGNBL0101004F
  0
POLYLINE
  8
LAYER_1
 40
0.1764
 41
0.1764
 62
1
 66
1
 10
0
 20
0
 30
0
  0
VERTEX
  8
LAYER_1
 10
62.5141
 20
-138.1162
  0
VERTEX
  8
LAYER_1
 10
46.5141
 20
-138.1162
  0
VERTEX
  8
LAYER_1
 10
50.2664
 20
-144.6127
  0
SEQEND
  0
POLYLINE
  8
LAYER_1
 40
0.1764
 41
0.1764
 62
1
 66
1
 10
0
 20
0
 30
0
  0
VERTEX
  8
LAYER_1
 10
48.5131
 20
-138.1162
  0
VERTEX
  8
LAYER_1
 10
46.5141
 20
-138.1162
  0
SEQEND
  0
POLYLINE
  8
LAYER_1
 40
0.1764
 41
0.1764
 62
1
 66
1
 10
0
 20
0
 30
0
  0
VERTEX
  8
LAYER_1
 10
50.512
 20
-138.1162
  0
VERTEX
  8
LAYER_1
 10
48.5131
 20
-138.1162
  0
SEQEND
  0
POLYLINE
  8
LAYER_1
 40
0.1764
 41
0.1764
 62
1
 66
1
 10
0
 20
0
 30
0
  0
VERTEX
  8
LAYER_1
 10
52.5109
 20
-138.1162
  0
VERTEX
  8
LAYER_1
 10
50.512
 20
-138.1162
  0
SEQEND
  0
POLYLINE
  8
LAYER_1
 40
0.1764
 41
0.1764
 62
1
 66
1
 10
0
 20
0
 30
0
  0
VERTEX
  8
LAYER_1
 10
54.5099
 20
-138.1162
  0
VERTEX
  8
LAYER_1
 10
52.5109
 20
-138.1162
  0
SEQEND
  0
POLYLINE
  8
LAYER_1
 40
0.1764
 41
0.1764
 62
1
 66
1
 10
0
 20
0
 30
0
  0
VERTEX
  8
LAYER_1
 10
56.5088
 20
-138.1162
  0
VERTEX
  8
LAYER_1
 10
54.5099
 20
-138.1162
  0
SEQEND
  0
POLYLINE
  8
LAYER_1
 40
0.1764
 41
0.1764
 62
1
 66
1
 10
0
 20
0
 30
0
  0
VERTEX
  8
LAYER_1
 10
58.5077
 20
-138.1162
  0
VERTEX
  8
LAYER_1
 10
56.5088
 20
-138.1162
  0
SEQEND
  0
POLYLINE
  8
LAYER_1
 40
0.1764
 41
0.1764
 62
1
 66
1
 10
0
 20
0
 30
0
  0
VERTEX
  8
LAYER_1
 10
60.5066
 20
-138.1162
  0
VERTEX
  8
LAYER_1
 10
58.5077
 20
-138.1162
  0
SEQEND
  0
POLYLINE
  8
LAYER_1
 40
0.1764
 41
0.1764
 62
1
 66
1
 10
0
 20
0
 30
0
  0
VERTEX
  8
LAYER_1
 10
48.513
 20
-138.1162
  0
VERTEX
  8
LAYER_1
 10
52.477
 20
-144.9854
  0
SEQEND
  0
POLYLINE
  8
LAYER_1
 40
0.1764
 41
0.1764
 62
1
 66
1
 10
0
 20
0
 30
0
  0
VERTEX
  8
LAYER_1
 10
50.512
 20
-138.1162
  0
VERTEX
  8
LAYER_1
 10
54.3489
 20
-144.7567
  0
SEQEND
  0
POLYLINE
  8
LAYER_1
 40
0.1764
 41
0.1764
 62
1
 66
1
 10
0
 20
0
 30
0
  0
VERTEX
  8
LAYER_1
 10
52.5109
 20
-138.1162
  0
VERTEX
  8
LAYER_1
 10
56.3055
 20
-144.689
  0
SEQEND
  0
POLYLINE
  8
LAYER_1
 40
0.1764
 41
0.1764
 62
1
 66
1
 10
0
 20
0
 30
0
  0
VERTEX
  8
LAYER_1
 10
58.5077
 20
-145.0447
  0
VERTEX
  8
LAYER_1
 10
50.512
 20
-145.0447
  0
SEQEND
  0
POLYLINE
  8
LAYER_1
 40
0.1764
 41
0.1764
 62
1
 66
1
 10
0
 20
0
 30
0
  0
VERTEX
  8
LAYER_1
 10
50.2663
 20
-144.6128
  0
VERTEX
  8
LAYER_1
 10
50.512
 20
-145.0447
  0
SEQEND
  0
POLYLINE
  8
LAYER_1
 40
0.1764
 41
0.1764
 62
1
 66
1
 10
0
 20
0
 30
0
  0
VERTEX
  8
LAYER_1
 10
54.3489
 20
-144.7567
  0
VERTEX
  8
LAYER_1
 10
54.5098
 20
-145.0447
  0
SEQEND
  0
POLYLINE
  8
LAYER_1
 40
0.1764
 41
0.1764
 62
1
 66
1
 10
0
 20
0
 30
0
  0
VERTEX
  8
LAYER_1
 10
56.3055
 20
-144.689
  0
VERTEX
  8
LAYER_1
 10
56.5088
 20
-145.0447
  0
SEQEND
  0
POLYLINE
  8
LAYER_1
 40
0.1764
 41
0.1764
 62
1
 66
1
 10
0
 20
0
 30
0
  0
VERTEX
  8
LAYER_1
 10
62.514
 20
-138.1162
  0
VERTEX
  8
LAYER_1
 10
58.5077
 20
-145.0447
  0
SEQEND
  0
POLYLINE
  8
LAYER_1
 40
0.1764
 41
0.1764
 62
1
 66
1
 10
0
 20
0
 30
0
  0
VERTEX
  8
LAYER_1
 10
54.5098
 20
-138.1162
  0
VERTEX
  8
LAYER_1
 10
58.5077
 20
-145.0447
  0
SEQEND
  0
POLYLINE
  8
LAYER_1
 40
0.1764
 41
0.1764
 62
1
 66
1
 10
0
 20
0
 30
0
  0
VERTEX
  8
LAYER_1
 10
56.5088
 20
-138.1162
  0
VERTEX
  8
LAYER_1
 10
55.5093
 20
-139.8441
  0
SEQEND
  0
POLYLINE
  8
LAYER_1
 40
0.1764
 41
0.1764
 62
1
 66
1
 10
0
 20
0
 30
0
  0
VERTEX
  8
LAYER_1
 10
58.5077
 20
-138.1162
  0
VERTEX
  8
LAYER_1
 10
56.5088
 20
-141.5805
  0
SEQEND
  0
POLYLINE
  8
LAYER_1
 40
0.1764
 41
0.1764
 62
1
 66
1
 10
0
 20
0
 30
0
  0
VERTEX
  8
LAYER_1
 10
60.5066
 20
-138.1162
  0
VERTEX
  8
LAYER_1
 10
57.5082
 20
-143.3084
  0
SEQEND
  0
TEXT
  8
LAYER_1
 10
55.3224
 20
-139.9932
 11
55.3224
 21
-139.9932
 40
4.1737
 41
0.5
 50
180
  1
B
  0
ENDBLK
  0
BLOCK
  8
LAYER_1
  2
AIGNBL01010050
 70
64
 10
0
 20
0
 30
0
  3
AIGNBL01010050
  0
INSERT
  8
LAYER_1
  2
AIGNBL01020051
 10
0
 20
0
 30
0
  0
TEXT
  8
LAYER_1
 10
65.998
 20
-147.9198
 11
65.998
 21
-147.9198
 40
4.1737
 41
0.5
 50
119.9998689
  1
A
  0
ENDBLK
  0
BLOCK
  8
LAYER_1
  2
AIGNBL01010052
 70
64
 10
0
 20
0
 30
0
  3
AIGNBL01010052
  0
POLYLINE
  8
LAYER_1
 40
0.1764
 41
0.1764
 62
1
 66
1
 10
0
 20
0
 30
0
  0
VERTEX
  8
LAYER_1
 10
63.2024
 20
-138.3399
  0
VERTEX
  8
LAYER_1
 10
71.2024
 20
-152.1963
  0
VERTEX
  8
LAYER_1
 10
74.9525
 20
-145.6985
  0
SEQEND
  0
POLYLINE
  8
LAYER_1
 40
0.1764
 41
0.1764
 62
1
 66
1
 10
0
 20
0
 30
0
  0
VERTEX
  8
LAYER_1
 10
70.2029
 20
-150.4652
  0
VERTEX
  8
LAYER_1
 10
71.2024
 20
-152.1963
  0
SEQEND
  0
POLYLINE
  8
LAYER_1
 40
0.1764
 41
0.1764
 62
1
 66
1
 10
0
 20
0
 30
0
  0
VERTEX
  8
LAYER_1
 10
69.2035
 20
-148.734
  0
VERTEX
  8
LAYER_1
 10
70.2029
 20
-150.4652
  0
SEQEND
  0
POLYLINE
  8
LAYER_1
 40
0.1764
 41
0.1764
 62
1
 66
1
 10
0
 20
0
 30
0
  0
VERTEX
  8
LAYER_1
 10
68.204
 20
-147.0029
  0
VERTEX
  8
LAYER_1
 10
69.2035
 20
-148.734
  0
SEQEND
  0
POLYLINE
  8
LAYER_1
 40
0.1764
 41
0.1764
 62
1
 66
1
 10
0
 20
0
 30
0
  0
VERTEX
  8
LAYER_1
 10
67.2045
 20
-145.2718
  0
VERTEX
  8
LAYER_1
 10
68.204
 20
-147.0029
  0
SEQEND
  0
POLYLINE
  8
LAYER_1
 40
0.1764
 41
0.1764
 62
1
 66
1
 10
0
 20
0
 30
0
  0
VERTEX
  8
LAYER_1
 10
66.2051
 20
-143.5407
  0
VERTEX
  8
LAYER_1
 10
67.2045
 20
-145.2718
  0
SEQEND
  0
POLYLINE
  8
LAYER_1
 40
0.1764
 41
0.1764
 62
1
 66
1
 10
0
 20
0
 30
0
  0
VERTEX
  8
LAYER_1
 10
65.2056
 20
-141.8095
  0
VERTEX
  8
LAYER_1
 10
66.2051
 20
-143.5407
  0
SEQEND
  0
POLYLINE
  8
LAYER_1
 40
0.1764
 41
0.1764
 62
1
 66
1
 10
0
 20
0
 30
0
  0
VERTEX
  8
LAYER_1
 10
64.2062
 20
-140.0784
  0
VERTEX
  8
LAYER_1
 10
65.2056
 20
-141.8095
  0
SEQEND
  0
POLYLINE
  8
LAYER_1
 40
0.1764
 41
0.1764
 62
1
 66
1
 10
0
 20
0
 30
0
  0
VERTEX
  8
LAYER_1
 10
70.203
 20
-150.4652
  0
VERTEX
  8
LAYER_1
 10
74.1699
 20
-143.5977
  0
SEQEND
  0
POLYLINE
  8
LAYER_1
 40
0.1764
 41
0.1764
 62
1
 66
1
 10
0
 20
0
 30
0
  0
VERTEX
  8
LAYER_1
 10
69.2035
 20
-148.7341
  0
VERTEX
  8
LAYER_1
 10
73.0359
 20
-142.0909
  0
SEQEND
  0
POLYLINE
  8
LAYER_1
 40
0.1764
 41
0.1764
 62
1
 66
1
 10
0
 20
0
 30
0
  0
VERTEX
  8
LAYER_1
 10
68.204
 20
-147.0029
  0
VERTEX
  8
LAYER_1
 10
71.9989
 20
-140.4303
  0
SEQEND
  0
POLYLINE
  8
LAYER_1
 40
0.1764
 41
0.1764
 62
1
 66
1
 10
0
 20
0
 30
0
  0
VERTEX
  8
LAYER_1
 10
71.2059
 20
-138.3453
  0
VERTEX
  8
LAYER_1
 10
75.2038
 20
-145.2698
  0
SEQEND
  0
POLYLINE
  8
LAYER_1
 40
0.1764
 41
0.1764
 62
1
 66
1
 10
0
 20
0
 30
0
  0
VERTEX
  8
LAYER_1
 10
74.9525
 20
-145.6985
  0
VERTEX
  8
LAYER_1
 10
75.2038
 20
-145.2698
  0
SEQEND
  0
POLYLINE
  8
LAYER_1
 40
0.1764
 41
0.1764
 62
1
 66
1
 10
0
 20
0
 30
0
  0
VERTEX
  8
LAYER_1
 10
73.0359
 20
-142.0909
  0
VERTEX
  8
LAYER_1
 10
73.2048
 20
-141.8076
  0
SEQEND
  0
POLYLINE
  8
LAYER_1
 40
0.1764
 41
0.1764
 62
1
 66
1
 10
0
 20
0
 30
0
  0
VERTEX
  8
LAYER_1
 10
71.9989
 20
-140.4304
  0
VERTEX
  8
LAYER_1
 10
72.2054
 20
-140.0764
  0
SEQEND
  0
POLYLINE
  8
LAYER_1
 40
0.1764
 41
0.1764
 62
1
 66
1
 10
0
 20
0
 30
0
  0
VERTEX
  8
LAYER_1
 10
63.2025
 20
-138.34
  0
VERTEX
  8
LAYER_1
 10
71.2059
 20
-138.3453
  0
SEQEND
  0
POLYLINE
  8
LAYER_1
 40
0.1764
 41
0.1764
 62
1
 66
1
 10
0
 20
0
 30
0
  0
VERTEX
  8
LAYER_1
 10
67.2046
 20
-145.2718
  0
VERTEX
  8
LAYER_1
 10
71.2059
 20
-138.3453
  0
SEQEND
  0
POLYLINE
  8
LAYER_1
 40
0.1764
 41
0.1764
 62
1
 66
1
 10
0
 20
0
 30
0
  0
VERTEX
  8
LAYER_1
 10
66.2051
 20
-143.5407
  0
VERTEX
  8
LAYER_1
 10
68.2012
 20
-143.5423
  0
SEQEND
  0
POLYLINE
  8
LAYER_1
 40
0.1764
 41
0.1764
 62
1
 66
1
 10
0
 20
0
 30
0
  0
VERTEX
  8
LAYER_1
 10
65.2056
 20
-141.8096
  0
VERTEX
  8
LAYER_1
 10
69.2052
 20
-141.8086
  0
SEQEND
  0
POLYLINE
  8
LAYER_1
 40
0.1764
 41
0.1764
 62
1
 66
1
 10
0
 20
0
 30
0
  0
VERTEX
  8
LAYER_1
 10
64.2062
 20
-140.0784
  0
VERTEX
  8
LAYER_1
 10
70.2019
 20
-140.0791
  0
SEQEND
  0
TEXT
  8
LAYER_1
 10
68.7903
 20
-143.543
 11
68.7903
 21
-143.543
 40
4.1737
 41
0.5
 50
299.999869
  1
B
  0
ENDBLK
  0
BLOCK
  8
LAYER_1
  2
AIGNBL01010053
 70
64
 10
0
 20
0
 30
0
  3
AIGNBL01010053
  0
INSERT
  8
LAYER_1
  2
AIGNBL01020054
 10
0
 20
0
 30
0
  0
TEXT
  8
LAYER_1
 10
69.9655
 20
-130.5277
 11
69.9655
 21
-130.5277
 40
4.1737
 41
0.5
 50
240.0001311
  1
A
  0
ENDBLK
  0
BLOCK
  8
LAYER_1
  2
AIGNBL01010055
 70
64
 10
0
 20
0
 30
0
  3
AIGNBL01010055
  0
POLYLINE
  8
LAYER_1
 40
0.1764
 41
0.1764
 62
1
 66
1
 10
0
 20
0
 30
0
  0
VERTEX
  8
LAYER_1
 10
63.0636
 20
-137.7196
  0
VERTEX
  8
LAYER_1
 10
71.0636
 20
-123.8633
  0
VERTEX
  8
LAYER_1
 10
63.5613
 20
-123.8645
  0
SEQEND
  0
POLYLINE
  8
LAYER_1
 40
0.1764
 41
0.1764
 62
1
 66
1
 10
0
 20
0
 30
0
  0
VERTEX
  8
LAYER_1
 10
70.0641
 20
-125.5944
  0
VERTEX
  8
LAYER_1
 10
71.0636
 20
-123.8633
  0
SEQEND
  0
POLYLINE
  8
LAYER_1
 40
0.1764
 41
0.1764
 62
1
 66
1
 10
0
 20
0
 30
0
  0
VERTEX
  8
LAYER_1
 10
69.0647
 20
-127.3255
  0
VERTEX
  8
LAYER_1
 10
70.0641
 20
-125.5944
  0
SEQEND
  0
POLYLINE
  8
LAYER_1
 40
0.1764
 41
0.1764
 62
1
 66
1
 10
0
 20
0
 30
0
  0
VERTEX
  8
LAYER_1
 10
68.0652
 20
-129.0567
  0
VERTEX
  8
LAYER_1
 10
69.0647
 20
-127.3255
  0
SEQEND
  0
POLYLINE
  8
LAYER_1
 40
0.1764
 41
0.1764
 62
1
 66
1
 10
0
 20
0
 30
0
  0
VERTEX
  8
LAYER_1
 10
67.0658
 20
-130.7878
  0
VERTEX
  8
LAYER_1
 10
68.0652
 20
-129.0567
  0
SEQEND
  0
POLYLINE
  8
LAYER_1
 40
0.1764
 41
0.1764
 62
1
 66
1
 10
0
 20
0
 30
0
  0
VERTEX
  8
LAYER_1
 10
66.0663
 20
-132.5189
  0
VERTEX
  8
LAYER_1
 10
67.0658
 20
-130.7878
  0
SEQEND
  0
POLYLINE
  8
LAYER_1
 40
0.1764
 41
0.1764
 62
1
 66
1
 10
0
 20
0
 30
0
  0
VERTEX
  8
LAYER_1
 10
65.0668
 20
-134.25
  0
VERTEX
  8
LAYER_1
 10
66.0663
 20
-132.5189
  0
SEQEND
  0
POLYLINE
  8
LAYER_1
 40
0.1764
 41
0.1764
 62
1
 66
1
 10
0
 20
0
 30
0
  0
VERTEX
  8
LAYER_1
 10
64.0674
 20
-135.9812
  0
VERTEX
  8
LAYER_1
 10
65.0668
 20
-134.25
  0
SEQEND
  0
POLYLINE
  8
LAYER_1
 40
0.1764
 41
0.1764
 62
1
 66
1
 10
0
 20
0
 30
0
  0
VERTEX
  8
LAYER_1
 10
70.0642
 20
-125.5944
  0
VERTEX
  8
LAYER_1
 10
62.1332
 20
-125.5927
  0
SEQEND
  0
POLYLINE
  8
LAYER_1
 40
0.1764
 41
0.1764
 62
1
 66
1
 10
0
 20
0
 30
0
  0
VERTEX
  8
LAYER_1
 10
69.0647
 20
-127.3255
  0
VERTEX
  8
LAYER_1
 10
61.3954
 20
-127.3281
  0
SEQEND
  0
POLYLINE
  8
LAYER_1
 40
0.1764
 41
0.1764
 62
1
 66
1
 10
0
 20
0
 30
0
  0
VERTEX
  8
LAYER_1
 10
68.0652
 20
-129.0566
  0
VERTEX
  8
LAYER_1
 10
60.4758
 20
-129.0565
  0
SEQEND
  0
POLYLINE
  8
LAYER_1
 40
0.1764
 41
0.1764
 62
1
 66
1
 10
0
 20
0
 30
0
  0
VERTEX
  8
LAYER_1
 10
59.0666
 20
-130.7858
  0
VERTEX
  8
LAYER_1
 10
63.0644
 20
-123.8613
  0
SEQEND
  0
POLYLINE
  8
LAYER_1
 40
0.1764
 41
0.1764
 62
1
 66
1
 10
0
 20
0
 30
0
  0
VERTEX
  8
LAYER_1
 10
63.5613
 20
-123.8645
  0
VERTEX
  8
LAYER_1
 10
63.0644
 20
-123.8613
  0
SEQEND
  0
POLYLINE
  8
LAYER_1
 40
0.1764
 41
0.1764
 62
1
 66
1
 10
0
 20
0
 30
0
  0
VERTEX
  8
LAYER_1
 10
61.3954
 20
-127.3281
  0
VERTEX
  8
LAYER_1
 10
61.0655
 20
-127.3235
  0
SEQEND
  0
POLYLINE
  8
LAYER_1
 40
0.1764
 41
0.1764
 62
1
 66
1
 10
0
 20
0
 30
0
  0
VERTEX
  8
LAYER_1
 10
60.4758
 20
-129.0565
  0
VERTEX
  8
LAYER_1
 10
60.066
 20
-129.0546
  0
SEQEND
  0
POLYLINE
  8
LAYER_1
 40
0.1764
 41
0.1764
 62
1
 66
1
 10
0
 20
0
 30
0
  0
VERTEX
  8
LAYER_1
 10
63.0637
 20
-137.7196
  0
VERTEX
  8
LAYER_1
 10
59.0666
 20
-130.7858
  0
SEQEND
  0
POLYLINE
  8
LAYER_1
 40
0.1764
 41
0.1764
 62
1
 66
1
 10
0
 20
0
 30
0
  0
VERTEX
  8
LAYER_1
 10
67.0658
 20
-130.7878
  0
VERTEX
  8
LAYER_1
 10
59.0666
 20
-130.7858
  0
SEQEND
  0
POLYLINE
  8
LAYER_1
 40
0.1764
 41
0.1764
 62
1
 66
1
 10
0
 20
0
 30
0
  0
VERTEX
  8
LAYER_1
 10
66.0663
 20
-132.5189
  0
VERTEX
  8
LAYER_1
 10
65.0696
 20
-130.7894
  0
SEQEND
  0
POLYLINE
  8
LAYER_1
 40
0.1764
 41
0.1764
 62
1
 66
1
 10
0
 20
0
 30
0
  0
VERTEX
  8
LAYER_1
 10
65.0668
 20
-134.25
  0
VERTEX
  8
LAYER_1
 10
63.0662
 20
-130.7867
  0
SEQEND
  0
POLYLINE
  8
LAYER_1
 40
0.1764
 41
0.1764
 62
1
 66
1
 10
0
 20
0
 30
0
  0
VERTEX
  8
LAYER_1
 10
64.0674
 20
-135.9811
  0
VERTEX
  8
LAYER_1
 10
61.07
 20
-130.7884
  0
SEQEND
  0
TEXT
  8
LAYER_1
 10
64.9723
 20
-130.2902
 11
64.9723
 21
-130.2902
 40
4.1737
 41
0.5
 50
60.00013103
  1
B
  0
ENDBLK
  0
BLOCK
  8
LAYER_1
  2
AIGNBL01010056
 70
64
 10
0
 20
0
 30
0
  3
AIGNBL01010056
  0
INSERT
  8
LAYER_1
  2
AIGNBL01020057
 10
0
 20
0
 30
0
  0
TEXT
  8
LAYER_1
 10
39.9222
 20
-157.7893
 11
39.9222
 21
-157.7893
 40
4.1737
 41
0.5
  1
A
  0
ENDBLK
  0
BLOCK
  8
LAYER_1
  2
AIGNBL01010058
 70
64
 10
0
 20
0
 30
0
  3
AIGNBL01010058
  0
POLYLINE
  8
LAYER_1
 40
0.1764
 41
0.1764
 62
1
 66
1
 10
0
 20
0
 30
0
  0
VERTEX
  8
LAYER_1
 10
49.6199
 20
-160.1761
  0
VERTEX
  8
LAYER_1
 10
33.62
 20
-160.1761
  0
VERTEX
  8
LAYER_1
 10
37.3722
 20
-166.6726
  0
SEQEND
  0
POLYLINE
  8
LAYER_1
 40
0.1764
 41
0.1764
 62
1
 66
1
 10
0
 20
0
 30
0
  0
VERTEX
  8
LAYER_1
 10
35.6189
 20
-160.1761
  0
VERTEX
  8
LAYER_1
 10
33.62
 20
-160.1761
  0
SEQEND
  0
POLYLINE
  8
LAYER_1
 40
0.1764
 41
0.1764
 62
1
 66
1
 10
0
 20
0
 30
0
  0
VERTEX
  8
LAYER_1
 10
37.6178
 20
-160.1761
  0
VERTEX
  8
LAYER_1
 10
35.6189
 20
-160.1761
  0
SEQEND
  0
POLYLINE
  8
LAYER_1
 40
0.1764
 41
0.1764
 62
1
 66
1
 10
0
 20
0
 30
0
  0
VERTEX
  8
LAYER_1
 10
39.6168
 20
-160.1761
  0
VERTEX
  8
LAYER_1
 10
37.6178
 20
-160.1761
  0
SEQEND
  0
POLYLINE
  8
LAYER_1
 40
0.1764
 41
0.1764
 62
1
 66
1
 10
0
 20
0
 30
0
  0
VERTEX
  8
LAYER_1
 10
41.6157
 20
-160.1761
  0
VERTEX
  8
LAYER_1
 10
39.6168
 20
-160.1761
  0
SEQEND
  0
POLYLINE
  8
LAYER_1
 40
0.1764
 41
0.1764
 62
1
 66
1
 10
0
 20
0
 30
0
  0
VERTEX
  8
LAYER_1
 10
43.6146
 20
-160.1761
  0
VERTEX
  8
LAYER_1
 10
41.6157
 20
-160.1761
  0
SEQEND
  0
POLYLINE
  8
LAYER_1
 40
0.1764
 41
0.1764
 62
1
 66
1
 10
0
 20
0
 30
0
  0
VERTEX
  8
LAYER_1
 10
45.6136
 20
-160.1761
  0
VERTEX
  8
LAYER_1
 10
43.6146
 20
-160.1761
  0
SEQEND
  0
POLYLINE
  8
LAYER_1
 40
0.1764
 41
0.1764
 62
1
 66
1
 10
0
 20
0
 30
0
  0
VERTEX
  8
LAYER_1
 10
47.6125
 20
-160.1761
  0
VERTEX
  8
LAYER_1
 10
45.6136
 20
-160.1761
  0
SEQEND
  0
POLYLINE
  8
LAYER_1
 40
0.1764
 41
0.1764
 62
1
 66
1
 10
0
 20
0
 30
0
  0
VERTEX
  8
LAYER_1
 10
35.6189
 20
-160.1761
  0
VERTEX
  8
LAYER_1
 10
39.5829
 20
-167.0453
  0
SEQEND
  0
POLYLINE
  8
LAYER_1
 40
0.1764
 41
0.1764
 62
1
 66
1
 10
0
 20
0
 30
0
  0
VERTEX
  8
LAYER_1
 10
37.6178
 20
-160.1761
  0
VERTEX
  8
LAYER_1
 10
41.4547
 20
-166.8166
  0
SEQEND
  0
POLYLINE
  8
LAYER_1
 40
0.1764
 41
0.1764
 62
1
 66
1
 10
0
 20
0
 30
0
  0
VERTEX
  8
LAYER_1
 10
39.6167
 20
-160.1761
  0
VERTEX
  8
LAYER_1
 10
43.4113
 20
-166.7489
  0
SEQEND
  0
POLYLINE
  8
LAYER_1
 40
0.1764
 41
0.1764
 62
1
 66
1
 10
0
 20
0
 30
0
  0
VERTEX
  8
LAYER_1
 10
45.6135
 20
-167.1046
  0
VERTEX
  8
LAYER_1
 10
37.6178
 20
-167.1046
  0
SEQEND
  0
POLYLINE
  8
LAYER_1
 40
0.1764
 41
0.1764
 62
1
 66
1
 10
0
 20
0
 30
0
  0
VERTEX
  8
LAYER_1
 10
37.3722
 20
-166.6726
  0
VERTEX
  8
LAYER_1
 10
37.6178
 20
-167.1046
  0
SEQEND
  0
POLYLINE
  8
LAYER_1
 40
0.1764
 41
0.1764
 62
1
 66
1
 10
0
 20
0
 30
0
  0
VERTEX
  8
LAYER_1
 10
41.4547
 20
-166.8166
  0
VERTEX
  8
LAYER_1
 10
41.6157
 20
-167.1046
  0
SEQEND
  0
POLYLINE
  8
LAYER_1
 40
0.1764
 41
0.1764
 62
1
 66
1
 10
0
 20
0
 30
0
  0
VERTEX
  8
LAYER_1
 10
43.4113
 20
-166.7489
  0
VERTEX
  8
LAYER_1
 10
43.6146
 20
-167.1046
  0
SEQEND
  0
POLYLINE
  8
LAYER_1
 40
0.1764
 41
0.1764
 62
1
 66
1
 10
0
 20
0
 30
0
  0
VERTEX
  8
LAYER_1
 10
49.6199
 20
-160.1761
  0
VERTEX
  8
LAYER_1
 10
45.6135
 20
-167.1046
  0
SEQEND
  0
POLYLINE
  8
LAYER_1
 40
0.1764
 41
0.1764
 62
1
 66
1
 10
0
 20
0
 30
0
  0
VERTEX
  8
LAYER_1
 10
41.6157
 20
-160.1761
  0
VERTEX
  8
LAYER_1
 10
45.6135
 20
-167.1046
  0
SEQEND
  0
POLYLINE
  8
LAYER_1
 40
0.1764
 41
0.1764
 62
1
 66
1
 10
0
 20
0
 30
0
  0
VERTEX
  8
LAYER_1
 10
43.6146
 20
-160.1761
  0
VERTEX
  8
LAYER_1
 10
42.6151
 20
-161.904
  0
SEQEND
  0
POLYLINE
  8
LAYER_1
 40
0.1764
 41
0.1764
 62
1
 66
1
 10
0
 20
0
 30
0
  0
VERTEX
  8
LAYER_1
 10
45.6135
 20
-160.1761
  0
VERTEX
  8
LAYER_1
 10
43.6146
 20
-163.6404
  0
SEQEND
  0
POLYLINE
  8
LAYER_1
 40
0.1764
 41
0.1764
 62
1
 66
1
 10
0
 20
0
 30
0
  0
VERTEX
  8
LAYER_1
 10
47.6124
 20
-160.1761
  0
VERTEX
  8
LAYER_1
 10
44.614
 20
-165.3683
  0
SEQEND
  0
TEXT
  8
LAYER_1
 10
42.4281
 20
-162.0528
 11
42.4281
 21
-162.0528
 40
4.1737
 41
0.5
 50
180
  1
B
  0
ENDBLK
  0
BLOCK
  8
LAYER_1
  2
AIGNBL01010059
 70
64
 10
0
 20
0
 30
0
  3
AIGNBL01010059
  0
INSERT
  8
LAYER_1
  2
AIGNBL0102005A
 10
0
 20
0
 30
0
  0
TEXT
  8
LAYER_1
 10
53.1038
 20
-169.9794
 11
53.1038
 21
-169.9794
 40
4.1737
 41
0.5
 50
119.9998689
  1
A
  0
ENDBLK
  0
BLOCK
  8
LAYER_1
  2
AIGNBL0101005B
 70
64
 10
0
 20
0
 30
0
  3
AIGNBL0101005B
  0
POLYLINE
  8
LAYER_1
 40
0.1764
 41
0.1764
 62
1
 66
1
 10
0
 20
0
 30
0
  0
VERTEX
  8
LAYER_1
 10
50.3083
 20
-160.3998
  0
VERTEX
  8
LAYER_1
 10
58.3082
 20
-174.2562
  0
VERTEX
  8
LAYER_1
 10
62.0583
 20
-167.7584
  0
SEQEND
  0
POLYLINE
  8
LAYER_1
 40
0.1764
 41
0.1764
 62
1
 66
1
 10
0
 20
0
 30
0
  0
VERTEX
  8
LAYER_1
 10
57.3088
 20
-172.5251
  0
VERTEX
  8
LAYER_1
 10
58.3082
 20
-174.2562
  0
SEQEND
  0
POLYLINE
  8
LAYER_1
 40
0.1764
 41
0.1764
 62
1
 66
1
 10
0
 20
0
 30
0
  0
VERTEX
  8
LAYER_1
 10
56.3093
 20
-170.7939
  0
VERTEX
  8
LAYER_1
 10
57.3088
 20
-172.5251
  0
SEQEND
  0
POLYLINE
  8
LAYER_1
 40
0.1764
 41
0.1764
 62
1
 66
1
 10
0
 20
0
 30
0
  0
VERTEX
  8
LAYER_1
 10
55.3098
 20
-169.0628
  0
VERTEX
  8
LAYER_1
 10
56.3093
 20
-170.7939
  0
SEQEND
  0
POLYLINE
  8
LAYER_1
 40
0.1764
 41
0.1764
 62
1
 66
1
 10
0
 20
0
 30
0
  0
VERTEX
  8
LAYER_1
 10
54.3104
 20
-167.3317
  0
VERTEX
  8
LAYER_1
 10
55.3098
 20
-169.0628
  0
SEQEND
  0
POLYLINE
  8
LAYER_1
 40
0.1764
 41
0.1764
 62
1
 66
1
 10
0
 20
0
 30
0
  0
VERTEX
  8
LAYER_1
 10
53.3109
 20
-165.6006
  0
VERTEX
  8
LAYER_1
 10
54.3104
 20
-167.3317
  0
SEQEND
  0
POLYLINE
  8
LAYER_1
 40
0.1764
 41
0.1764
 62
1
 66
1
 10
0
 20
0
 30
0
  0
VERTEX
  8
LAYER_1
 10
52.3115
 20
-163.8694
  0
VERTEX
  8
LAYER_1
 10
53.3109
 20
-165.6006
  0
SEQEND
  0
POLYLINE
  8
LAYER_1
 40
0.1764
 41
0.1764
 62
1
 66
1
 10
0
 20
0
 30
0
  0
VERTEX
  8
LAYER_1
 10
51.312
 20
-162.1383
  0
VERTEX
  8
LAYER_1
 10
52.3115
 20
-163.8694
  0
SEQEND
  0
POLYLINE
  8
LAYER_1
 40
0.1764
 41
0.1764
 62
1
 66
1
 10
0
 20
0
 30
0
  0
VERTEX
  8
LAYER_1
 10
57.3088
 20
-172.5251
  0
VERTEX
  8
LAYER_1
 10
61.2757
 20
-165.6576
  0
SEQEND
  0
POLYLINE
  8
LAYER_1
 40
0.1764
 41
0.1764
 62
1
 66
1
 10
0
 20
0
 30
0
  0
VERTEX
  8
LAYER_1
 10
56.3093
 20
-170.794
  0
VERTEX
  8
LAYER_1
 10
60.1417
 20
-164.1508
  0
SEQEND
  0
POLYLINE
  8
LAYER_1
 40
0.1764
 41
0.1764
 62
1
 66
1
 10
0
 20
0
 30
0
  0
VERTEX
  8
LAYER_1
 10
55.3099
 20
-169.0628
  0
VERTEX
  8
LAYER_1
 10
59.1047
 20
-162.4902
  0
SEQEND
  0
POLYLINE
  8
LAYER_1
 40
0.1764
 41
0.1764
 62
1
 66
1
 10
0
 20
0
 30
0
  0
VERTEX
  8
LAYER_1
 10
58.3117
 20
-160.4052
  0
VERTEX
  8
LAYER_1
 10
62.3096
 20
-167.3297
  0
SEQEND
  0
POLYLINE
  8
LAYER_1
 40
0.1764
 41
0.1764
 62
1
 66
1
 10
0
 20
0
 30
0
  0
VERTEX
  8
LAYER_1
 10
62.0583
 20
-167.7584
  0
VERTEX
  8
LAYER_1
 10
62.3096
 20
-167.3297
  0
SEQEND
  0
POLYLINE
  8
LAYER_1
 40
0.1764
 41
0.1764
 62
1
 66
1
 10
0
 20
0
 30
0
  0
VERTEX
  8
LAYER_1
 10
60.1417
 20
-164.1508
  0
VERTEX
  8
LAYER_1
 10
60.3107
 20
-163.8674
  0
SEQEND
  0
POLYLINE
  8
LAYER_1
 40
0.1764
 41
0.1764
 62
1
 66
1
 10
0
 20
0
 30
0
  0
VERTEX
  8
LAYER_1
 10
59.1048
 20
-162.4902
  0
VERTEX
  8
LAYER_1
 10
59.3112
 20
-162.1363
  0
SEQEND
  0
POLYLINE
  8
LAYER_1
 40
0.1764
 41
0.1764
 62
1
 66
1
 10
0
 20
0
 30
0
  0
VERTEX
  8
LAYER_1
 10
50.3083
 20
-160.3999
  0
VERTEX
  8
LAYER_1
 10
58.3117
 20
-160.4052
  0
SEQEND
  0
POLYLINE
  8
LAYER_1
 40
0.1764
 41
0.1764
 62
1
 66
1
 10
0
 20
0
 30
0
  0
VERTEX
  8
LAYER_1
 10
54.3104
 20
-167.3317
  0
VERTEX
  8
LAYER_1
 10
58.3117
 20
-160.4052
  0
SEQEND
  0
POLYLINE
  8
LAYER_1
 40
0.1764
 41
0.1764
 62
1
 66
1
 10
0
 20
0
 30
0
  0
VERTEX
  8
LAYER_1
 10
53.3109
 20
-165.6006
  0
VERTEX
  8
LAYER_1
 10
55.3071
 20
-165.6022
  0
SEQEND
  0
POLYLINE
  8
LAYER_1
 40
0.1764
 41
0.1764
 62
1
 66
1
 10
0
 20
0
 30
0
  0
VERTEX
  8
LAYER_1
 10
52.3115
 20
-163.8695
  0
VERTEX
  8
LAYER_1
 10
56.3111
 20
-163.8685
  0
SEQEND
  0
POLYLINE
  8
LAYER_1
 40
0.1764
 41
0.1764
 62
1
 66
1
 10
0
 20
0
 30
0
  0
VERTEX
  8
LAYER_1
 10
51.312
 20
-162.1383
  0
VERTEX
  8
LAYER_1
 10
57.3077
 20
-162.139
  0
SEQEND
  0
TEXT
  8
LAYER_1
 10
55.896
 20
-165.6029
 11
55.896
 21
-165.6029
 40
4.1737
 41
0.5
 50
299.999869
  1
B
  0
ENDBLK
  0
BLOCK
  8
LAYER_1
  2
AIGNBL0101005C
 70
64
 10
0
 20
0
 30
0
  3
AIGNBL0101005C
  0
INSERT
  8
LAYER_1
  2
AIGNBL0102005D
 10
0
 20
0
 30
0
  0
TEXT
  8
LAYER_1
 10
57.0712
 20
-152.5876
 11
57.0712
 21
-152.5876
 40
4.1737
 41
0.5
 50
240.0001311
  1
A
  0
ENDBLK
  0
BLOCK
  8
LAYER_1
  2
AIGNBL0101005E
 70
64
 10
0
 20
0
 30
0
  3
AIGNBL0101005E
  0
POLYLINE
  8
LAYER_1
 40
0.1764
 41
0.1764
 62
1
 66
1
 10
0
 20
0
 30
0
  0
VERTEX
  8
LAYER_1
 10
50.1695
 20
-159.7795
  0
VERTEX
  8
LAYER_1
 10
58.1695
 20
-145.9232
  0
VERTEX
  8
LAYER_1
 10
50.6672
 20
-145.9244
  0
SEQEND
  0
POLYLINE
  8
LAYER_1
 40
0.1764
 41
0.1764
 62
1
 66
1
 10
0
 20
0
 30
0
  0
VERTEX
  8
LAYER_1
 10
57.17
 20
-147.6543
  0
VERTEX
  8
LAYER_1
 10
58.1694
 20
-145.9232
  0
SEQEND
  0
POLYLINE
  8
LAYER_1
 40
0.1764
 41
0.1764
 62
1
 66
1
 10
0
 20
0
 30
0
  0
VERTEX
  8
LAYER_1
 10
56.1705
 20
-149.3854
  0
VERTEX
  8
LAYER_1
 10
57.17
 20
-147.6543
  0
SEQEND
  0
POLYLINE
  8
LAYER_1
 40
0.1764
 41
0.1764
 62
1
 66
1
 10
0
 20
0
 30
0
  0
VERTEX
  8
LAYER_1
 10
55.1711
 20
-151.1166
  0
VERTEX
  8
LAYER_1
 10
56.1705
 20
-149.3854
  0
SEQEND
  0
POLYLINE
  8
LAYER_1
 40
0.1764
 41
0.1764
 62
1
 66
1
 10
0
 20
0
 30
0
  0
VERTEX
  8
LAYER_1
 10
54.1716
 20
-152.8477
  0
VERTEX
  8
LAYER_1
 10
55.1711
 20
-151.1166
  0
SEQEND
  0
POLYLINE
  8
LAYER_1
 40
0.1764
 41
0.1764
 62
1
 66
1
 10
0
 20
0
 30
0
  0
VERTEX
  8
LAYER_1
 10
53.1721
 20
-154.5788
  0
VERTEX
  8
LAYER_1
 10
54.1716
 20
-152.8477
  0
SEQEND
  0
POLYLINE
  8
LAYER_1
 40
0.1764
 41
0.1764
 62
1
 66
1
 10
0
 20
0
 30
0
  0
VERTEX
  8
LAYER_1
 10
52.1727
 20
-156.3099
  0
VERTEX
  8
LAYER_1
 10
53.1721
 20
-154.5788
  0
SEQEND
  0
POLYLINE
  8
LAYER_1
 40
0.1764
 41
0.1764
 62
1
 66
1
 10
0
 20
0
 30
0
  0
VERTEX
  8
LAYER_1
 10
51.1732
 20
-158.041
  0
VERTEX
  8
LAYER_1
 10
52.1727
 20
-156.3099
  0
SEQEND
  0
POLYLINE
  8
LAYER_1
 40
0.1764
 41
0.1764
 62
1
 66
1
 10
0
 20
0
 30
0
  0
VERTEX
  8
LAYER_1
 10
57.17
 20
-147.6543
  0
VERTEX
  8
LAYER_1
 10
49.2391
 20
-147.6526
  0
SEQEND
  0
POLYLINE
  8
LAYER_1
 40
0.1764
 41
0.1764
 62
1
 66
1
 10
0
 20
0
 30
0
  0
VERTEX
  8
LAYER_1
 10
56.1705
 20
-149.3854
  0
VERTEX
  8
LAYER_1
 10
48.5012
 20
-149.388
  0
SEQEND
  0
POLYLINE
  8
LAYER_1
 40
0.1764
 41
0.1764
 62
1
 66
1
 10
0
 20
0
 30
0
  0
VERTEX
  8
LAYER_1
 10
55.1711
 20
-151.1165
  0
VERTEX
  8
LAYER_1
 10
47.5816
 20
-151.1164
  0
SEQEND
  0
POLYLINE
  8
LAYER_1
 40
0.1764
 41
0.1764
 62
1
 66
1
 10
0
 20
0
 30
0
  0
VERTEX
  8
LAYER_1
 10
46.1724
 20
-152.8457
  0
VERTEX
  8
LAYER_1
 10
50.1703
 20
-145.9211
  0
SEQEND
  0
POLYLINE
  8
LAYER_1
 40
0.1764
 41
0.1764
 62
1
 66
1
 10
0
 20
0
 30
0
  0
VERTEX
  8
LAYER_1
 10
50.6672
 20
-145.9244
  0
VERTEX
  8
LAYER_1
 10
50.1703
 20
-145.9211
  0
SEQEND
  0
POLYLINE
  8
LAYER_1
 40
0.1764
 41
0.1764
 62
1
 66
1
 10
0
 20
0
 30
0
  0
VERTEX
  8
LAYER_1
 10
48.5012
 20
-149.388
  0
VERTEX
  8
LAYER_1
 10
48.1713
 20
-149.3834
  0
SEQEND
  0
POLYLINE
  8
LAYER_1
 40
0.1764
 41
0.1764
 62
1
 66
1
 10
0
 20
0
 30
0
  0
VERTEX
  8
LAYER_1
 10
47.5816
 20
-151.1163
  0
VERTEX
  8
LAYER_1
 10
47.1719
 20
-151.1145
  0
SEQEND
  0
POLYLINE
  8
LAYER_1
 40
0.1764
 41
0.1764
 62
1
 66
1
 10
0
 20
0
 30
0
  0
VERTEX
  8
LAYER_1
 10
50.1695
 20
-159.7795
  0
VERTEX
  8
LAYER_1
 10
46.1724
 20
-152.8456
  0
SEQEND
  0
POLYLINE
  8
LAYER_1
 40
0.1764
 41
0.1764
 62
1
 66
1
 10
0
 20
0
 30
0
  0
VERTEX
  8
LAYER_1
 10
54.1716
 20
-152.8476
  0
VERTEX
  8
LAYER_1
 10
46.1724
 20
-152.8456
  0
SEQEND
  0
POLYLINE
  8
LAYER_1
 40
0.1764
 41
0.1764
 62
1
 66
1
 10
0
 20
0
 30
0
  0
VERTEX
  8
LAYER_1
 10
53.1721
 20
-154.5788
  0
VERTEX
  8
LAYER_1
 10
52.1755
 20
-152.8493
  0
SEQEND
  0
POLYLINE
  8
LAYER_1
 40
0.1764
 41
0.1764
 62
1
 66
1
 10
0
 20
0
 30
0
  0
VERTEX
  8
LAYER_1
 10
52.1727
 20
-156.3099
  0
VERTEX
  8
LAYER_1
 10
50.172
 20
-152.8466
  0
SEQEND
  0
POLYLINE
  8
LAYER_1
 40
0.1764
 41
0.1764
 62
1
 66
1
 10
0
 20
0
 30
0
  0
VERTEX
  8
LAYER_1
 10
51.1732
 20
-158.041
  0
VERTEX
  8
LAYER_1
 10
48.1759
 20
-152.8483
  0
SEQEND
  0
TEXT
  8
LAYER_1
 10
52.0782
 20
-152.3501
 11
52.0782
 21
-152.3501
 40
4.1737
 41
0.5
 50
60.00013103
  1
B
  0
ENDBLK
  0
BLOCK
  8
LAYER_1
  2
AIGNBL0101005F
 70
64
 10
0
 20
0
 30
0
  3
AIGNBL0101005F
  0
INSERT
  8
LAYER_1
  2
AIGNBL01020060
 10
0
 20
0
 30
0
  0
TEXT
  8
LAYER_1
 10
-11.3947
 20
-157.1313
 11
-11.3947
 21
-157.1313
 40
4.1737
 41
0.5
  1
A
  0
ENDBLK
  0
BLOCK
  8
LAYER_1
  2
AIGNBL01010061
 70
64
 10
0
 20
0
 30
0
  3
AIGNBL01010061
  0
POLYLINE
  8
LAYER_1
 40
0.1764
 41
0.1764
 62
1
 66
1
 10
0
 20
0
 30
0
  0
VERTEX
  8
LAYER_1
 10
-1.697
 20
-159.5181
  0
VERTEX
  8
LAYER_1
 10
-17.6969
 20
-159.5181
  0
VERTEX
  8
LAYER_1
 10
-13.9447
 20
-166.0147
  0
SEQEND
  0
POLYLINE
  8
LAYER_1
 40
0.1764
 41
0.1764
 62
1
 66
1
 10
0
 20
0
 30
0
  0
VERTEX
  8
LAYER_1
 10
-15.698
 20
-159.5181
  0
VERTEX
  8
LAYER_1
 10
-17.6969
 20
-159.5181
  0
SEQEND
  0
POLYLINE
  8
LAYER_1
 40
0.1764
 41
0.1764
 62
1
 66
1
 10
0
 20
0
 30
0
  0
VERTEX
  8
LAYER_1
 10
-13.6991
 20
-159.5181
  0
VERTEX
  8
LAYER_1
 10
-15.698
 20
-159.5181
  0
SEQEND
  0
POLYLINE
  8
LAYER_1
 40
0.1764
 41
0.1764
 62
1
 66
1
 10
0
 20
0
 30
0
  0
VERTEX
  8
LAYER_1
 10
-11.7002
 20
-159.5181
  0
VERTEX
  8
LAYER_1
 10
-13.6991
 20
-159.5181
  0
SEQEND
  0
POLYLINE
  8
LAYER_1
 40
0.1764
 41
0.1764
 62
1
 66
1
 10
0
 20
0
 30
0
  0
VERTEX
  8
LAYER_1
 10
-9.7012
 20
-159.5181
  0
VERTEX
  8
LAYER_1
 10
-11.7002
 20
-159.5181
  0
SEQEND
  0
POLYLINE
  8
LAYER_1
 40
0.1764
 41
0.1764
 62
1
 66
1
 10
0
 20
0
 30
0
  0
VERTEX
  8
LAYER_1
 10
-7.7023
 20
-159.5181
  0
VERTEX
  8
LAYER_1
 10
-9.7012
 20
-159.5181
  0
SEQEND
  0
POLYLINE
  8
LAYER_1
 40
0.1764
 41
0.1764
 62
1
 66
1
 10
0
 20
0
 30
0
  0
VERTEX
  8
LAYER_1
 10
-5.7034
 20
-159.5181
  0
VERTEX
  8
LAYER_1
 10
-7.7023
 20
-159.5181
  0
SEQEND
  0
POLYLINE
  8
LAYER_1
 40
0.1764
 41
0.1764
 62
1
 66
1
 10
0
 20
0
 30
0
  0
VERTEX
  8
LAYER_1
 10
-3.7044
 20
-159.5181
  0
VERTEX
  8
LAYER_1
 10
-5.7034
 20
-159.5181
  0
SEQEND
  0
POLYLINE
  8
LAYER_1
 40
0.1764
 41
0.1764
 62
1
 66
1
 10
0
 20
0
 30
0
  0
VERTEX
  8
LAYER_1
 10
-15.698
 20
-159.5181
  0
VERTEX
  8
LAYER_1
 10
-11.734
 20
-166.3873
  0
SEQEND
  0
POLYLINE
  8
LAYER_1
 40
0.1764
 41
0.1764
 62
1
 66
1
 10
0
 20
0
 30
0
  0
VERTEX
  8
LAYER_1
 10
-13.6991
 20
-159.5181
  0
VERTEX
  8
LAYER_1
 10
-9.8622
 20
-166.1587
  0
SEQEND
  0
POLYLINE
  8
LAYER_1
 40
0.1764
 41
0.1764
 62
1
 66
1
 10
0
 20
0
 30
0
  0
VERTEX
  8
LAYER_1
 10
-11.7002
 20
-159.5181
  0
VERTEX
  8
LAYER_1
 10
-7.9056
 20
-166.0909
  0
SEQEND
  0
POLYLINE
  8
LAYER_1
 40
0.1764
 41
0.1764
 62
1
 66
1
 10
0
 20
0
 30
0
  0
VERTEX
  8
LAYER_1
 10
-5.7034
 20
-166.4466
  0
VERTEX
  8
LAYER_1
 10
-13.6991
 20
-166.4466
  0
SEQEND
  0
POLYLINE
  8
LAYER_1
 40
0.1764
 41
0.1764
 62
1
 66
1
 10
0
 20
0
 30
0
  0
VERTEX
  8
LAYER_1
 10
-13.9447
 20
-166.0147
  0
VERTEX
  8
LAYER_1
 10
-13.6991
 20
-166.4466
  0
SEQEND
  0
POLYLINE
  8
LAYER_1
 40
0.1764
 41
0.1764
 62
1
 66
1
 10
0
 20
0
 30
0
  0
VERTEX
  8
LAYER_1
 10
-9.8622
 20
-166.1587
  0
VERTEX
  8
LAYER_1
 10
-9.7012
 20
-166.4466
  0
SEQEND
  0
POLYLINE
  8
LAYER_1
 40
0.1764
 41
0.1764
 62
1
 66
1
 10
0
 20
0
 30
0
  0
VERTEX
  8
LAYER_1
 10
-7.9056
 20
-166.0909
  0
VERTEX
  8
LAYER_1
 10
-7.7023
 20
-166.4466
  0
SEQEND
  0
POLYLINE
  8
LAYER_1
 40
0.1764
 41
0.1764
 62
1
 66
1
 10
0
 20
0
 30
0
  0
VERTEX
  8
LAYER_1
 10
-1.6971
 20
-159.5181
  0
VERTEX
  8
LAYER_1
 10
-5.7034
 20
-166.4466
  0
SEQEND
  0
POLYLINE
  8
LAYER_1
 40
0.1764
 41
0.1764
 62
1
 66
1
 10
0
 20
0
 30
0
  0
VERTEX
  8
LAYER_1
 10
-9.7013
 20
-159.5181
  0
VERTEX
  8
LAYER_1
 10
-5.7034
 20
-166.4466
  0
SEQEND
  0
POLYLINE
  8
LAYER_1
 40
0.1764
 41
0.1764
 62
1
 66
1
 10
0
 20
0
 30
0
  0
VERTEX
  8
LAYER_1
 10
-7.7023
 20
-159.5181
  0
VERTEX
  8
LAYER_1
 10
-8.7018
 20
-161.246
  0
SEQEND
  0
POLYLINE
  8
LAYER_1
 40
0.1764
 41
0.1764
 62
1
 66
1
 10
0
 20
0
 30
0
  0
VERTEX
  8
LAYER_1
 10
-5.7034
 20
-159.5181
  0
VERTEX
  8
LAYER_1
 10
-7.7023
 20
-162.9824
  0
SEQEND
  0
POLYLINE
  8
LAYER_1
 40
0.1764
 41
0.1764
 62
1
 66
1
 10
0
 20
0
 30
0
  0
VERTEX
  8
LAYER_1
 10
-3.7045
 20
-159.5181
  0
VERTEX
  8
LAYER_1
 10
-6.7029
 20
-164.7103
  0
SEQEND
  0
TEXT
  8
LAYER_1
 10
-8.8887
 20
-161.3948
 11
-8.8887
 21
-161.3948
 40
4.1737
 41
0.5
 50
180
  1
B
  0
ENDBLK
  0
BLOCK
  8
LAYER_1
  2
AIGNBL01010062
 70
64
 10
0
 20
0
 30
0
  3
AIGNBL01010062
  0
INSERT
  8
LAYER_1
  2
AIGNBL01020063
 10
0
 20
0
 30
0
  0
TEXT
  8
LAYER_1
 10
1.7869
 20
-169.3214
 11
1.7869
 21
-169.3214
 40
4.1737
 41
0.5
 50
119.9998689
  1
A
  0
ENDBLK
  0
BLOCK
  8
LAYER_1
  2
AIGNBL01010064
 70
64
 10
0
 20
0
 30
0
  3
AIGNBL01010064
  0
POLYLINE
  8
LAYER_1
 40
0.1764
 41
0.1764
 62
1
 66
1
 10
0
 20
0
 30
0
  0
VERTEX
  8
LAYER_1
 10
-1.0086
 20
-159.7418
  0
VERTEX
  8
LAYER_1
 10
6.9913
 20
-173.5982
  0
VERTEX
  8
LAYER_1
 10
10.7414
 20
-167.1004
  0
SEQEND
  0
POLYLINE
  8
LAYER_1
 40
0.1764
 41
0.1764
 62
1
 66
1
 10
0
 20
0
 30
0
  0
VERTEX
  8
LAYER_1
 10
5.9919
 20
-171.8671
  0
VERTEX
  8
LAYER_1
 10
6.9913
 20
-173.5982
  0
SEQEND
  0
POLYLINE
  8
LAYER_1
 40
0.1764
 41
0.1764
 62
1
 66
1
 10
0
 20
0
 30
0
  0
VERTEX
  8
LAYER_1
 10
4.9924
 20
-170.1359
  0
VERTEX
  8
LAYER_1
 10
5.9919
 20
-171.8671
  0
SEQEND
  0
POLYLINE
  8
LAYER_1
 40
0.1764
 41
0.1764
 62
1
 66
1
 10
0
 20
0
 30
0
  0
VERTEX
  8
LAYER_1
 10
3.9929
 20
-168.4048
  0
VERTEX
  8
LAYER_1
 10
4.9924
 20
-170.1359
  0
SEQEND
  0
POLYLINE
  8
LAYER_1
 40
0.1764
 41
0.1764
 62
1
 66
1
 10
0
 20
0
 30
0
  0
VERTEX
  8
LAYER_1
 10
2.9935
 20
-166.6737
  0
VERTEX
  8
LAYER_1
 10
3.9929
 20
-168.4048
  0
SEQEND
  0
POLYLINE
  8
LAYER_1
 40
0.1764
 41
0.1764
 62
1
 66
1
 10
0
 20
0
 30
0
  0
VERTEX
  8
LAYER_1
 10
1.994
 20
-164.9426
  0
VERTEX
  8
LAYER_1
 10
2.9935
 20
-166.6737
  0
SEQEND
  0
POLYLINE
  8
LAYER_1
 40
0.1764
 41
0.1764
 62
1
 66
1
 10
0
 20
0
 30
0
  0
VERTEX
  8
LAYER_1
 10
0.9945
 20
-163.2115
  0
VERTEX
  8
LAYER_1
 10
1.994
 20
-164.9426
  0
SEQEND
  0
POLYLINE
  8
LAYER_1
 40
0.1764
 41
0.1764
 62
1
 66
1
 10
0
 20
0
 30
0
  0
VERTEX
  8
LAYER_1
 10
-0.0049
 20
-161.4803
  0
VERTEX
  8
LAYER_1
 10
0.9945
 20
-163.2115
  0
SEQEND
  0
POLYLINE
  8
LAYER_1
 40
0.1764
 41
0.1764
 62
1
 66
1
 10
0
 20
0
 30
0
  0
VERTEX
  8
LAYER_1
 10
5.9919
 20
-171.8671
  0
VERTEX
  8
LAYER_1
 10
9.9588
 20
-164.9996
  0
SEQEND
  0
POLYLINE
  8
LAYER_1
 40
0.1764
 41
0.1764
 62
1
 66
1
 10
0
 20
0
 30
0
  0
VERTEX
  8
LAYER_1
 10
4.9924
 20
-170.136
  0
VERTEX
  8
LAYER_1
 10
8.8248
 20
-163.4928
  0
SEQEND
  0
POLYLINE
  8
LAYER_1
 40
0.1764
 41
0.1764
 62
1
 66
1
 10
0
 20
0
 30
0
  0
VERTEX
  8
LAYER_1
 10
3.9929
 20
-168.4048
  0
VERTEX
  8
LAYER_1
 10
7.7878
 20
-161.8323
  0
SEQEND
  0
POLYLINE
  8
LAYER_1
 40
0.1764
 41
0.1764
 62
1
 66
1
 10
0
 20
0
 30
0
  0
VERTEX
  8
LAYER_1
 10
6.9948
 20
-159.7472
  0
VERTEX
  8
LAYER_1
 10
10.9927
 20
-166.6717
  0
SEQEND
  0
POLYLINE
  8
LAYER_1
 40
0.1764
 41
0.1764
 62
1
 66
1
 10
0
 20
0
 30
0
  0
VERTEX
  8
LAYER_1
 10
10.7414
 20
-167.1004
  0
VERTEX
  8
LAYER_1
 10
10.9927
 20
-166.6717
  0
SEQEND
  0
POLYLINE
  8
LAYER_1
 40
0.1764
 41
0.1764
 62
1
 66
1
 10
0
 20
0
 30
0
  0
VERTEX
  8
LAYER_1
 10
8.8248
 20
-163.4928
  0
VERTEX
  8
LAYER_1
 10
8.9937
 20
-163.2095
  0
SEQEND
  0
POLYLINE
  8
LAYER_1
 40
0.1764
 41
0.1764
 62
1
 66
1
 10
0
 20
0
 30
0
  0
VERTEX
  8
LAYER_1
 10
7.7878
 20
-161.8323
  0
VERTEX
  8
LAYER_1
 10
7.9943
 20
-161.4783
  0
SEQEND
  0
POLYLINE
  8
LAYER_1
 40
0.1764
 41
0.1764
 62
1
 66
1
 10
0
 20
0
 30
0
  0
VERTEX
  8
LAYER_1
 10
-1.0086
 20
-159.7419
  0
VERTEX
  8
LAYER_1
 10
6.9948
 20
-159.7472
  0
SEQEND
  0
POLYLINE
  8
LAYER_1
 40
0.1764
 41
0.1764
 62
1
 66
1
 10
0
 20
0
 30
0
  0
VERTEX
  8
LAYER_1
 10
2.9935
 20
-166.6737
  0
VERTEX
  8
LAYER_1
 10
6.9948
 20
-159.7472
  0
SEQEND
  0
POLYLINE
  8
LAYER_1
 40
0.1764
 41
0.1764
 62
1
 66
1
 10
0
 20
0
 30
0
  0
VERTEX
  8
LAYER_1
 10
1.994
 20
-164.9426
  0
VERTEX
  8
LAYER_1
 10
3.9902
 20
-164.9442
  0
SEQEND
  0
POLYLINE
  8
LAYER_1
 40
0.1764
 41
0.1764
 62
1
 66
1
 10
0
 20
0
 30
0
  0
VERTEX
  8
LAYER_1
 10
0.9946
 20
-163.2115
  0
VERTEX
  8
LAYER_1
 10
4.9942
 20
-163.2105
  0
SEQEND
  0
POLYLINE
  8
LAYER_1
 40
0.1764
 41
0.1764
 62
1
 66
1
 10
0
 20
0
 30
0
  0
VERTEX
  8
LAYER_1
 10
-0.0049
 20
-161.4804
  0
VERTEX
  8
LAYER_1
 10
5.9908
 20
-161.481
  0
SEQEND
  0
TEXT
  8
LAYER_1
 10
4.5792
 20
-164.9449
 11
4.5792
 21
-164.9449
 40
4.1737
 41
0.5
 50
299.999869
  1
B
  0
ENDBLK
  0
BLOCK
  8
LAYER_1
  2
AIGNBL01010065
 70
64
 10
0
 20
0
 30
0
  3
AIGNBL01010065
  0
INSERT
  8
LAYER_1
  2
AIGNBL01020066
 10
0
 20
0
 30
0
  0
TEXT
  8
LAYER_1
 10
5.7551
 20
-151.9298
 11
5.7551
 21
-151.9298
 40
4.1737
 41
0.5
 50
240.0001311
  1
A
  0
ENDBLK
  0
BLOCK
  8
LAYER_1
  2
AIGNBL01010067
 70
64
 10
0
 20
0
 30
0
  3
AIGNBL01010067
  0
POLYLINE
  8
LAYER_1
 40
0.1764
 41
0.1764
 62
1
 66
1
 10
0
 20
0
 30
0
  0
VERTEX
  8
LAYER_1
 10
-1.1474
 20
-159.1215
  0
VERTEX
  8
LAYER_1
 10
6.8525
 20
-145.2652
  0
VERTEX
  8
LAYER_1
 10
-0.6497
 20
-145.2665
  0
SEQEND
  0
POLYLINE
  8
LAYER_1
 40
0.1764
 41
0.1764
 62
1
 66
1
 10
0
 20
0
 30
0
  0
VERTEX
  8
LAYER_1
 10
5.8531
 20
-146.9963
  0
VERTEX
  8
LAYER_1
 10
6.8525
 20
-145.2652
  0
SEQEND
  0
POLYLINE
  8
LAYER_1
 40
0.1764
 41
0.1764
 62
1
 66
1
 10
0
 20
0
 30
0
  0
VERTEX
  8
LAYER_1
 10
4.8536
 20
-148.7274
  0
VERTEX
  8
LAYER_1
 10
5.8531
 20
-146.9963
  0
SEQEND
  0
POLYLINE
  8
LAYER_1
 40
0.1764
 41
0.1764
 62
1
 66
1
 10
0
 20
0
 30
0
  0
VERTEX
  8
LAYER_1
 10
3.8541
 20
-150.4586
  0
VERTEX
  8
LAYER_1
 10
4.8536
 20
-148.7274
  0
SEQEND
  0
POLYLINE
  8
LAYER_1
 40
0.1764
 41
0.1764
 62
1
 66
1
 10
0
 20
0
 30
0
  0
VERTEX
  8
LAYER_1
 10
2.8547
 20
-152.1897
  0
VERTEX
  8
LAYER_1
 10
3.8541
 20
-150.4586
  0
SEQEND
  0
POLYLINE
  8
LAYER_1
 40
0.1764
 41
0.1764
 62
1
 66
1
 10
0
 20
0
 30
0
  0
VERTEX
  8
LAYER_1
 10
1.8552
 20
-153.9208
  0
VERTEX
  8
LAYER_1
 10
2.8547
 20
-152.1897
  0
SEQEND
  0
POLYLINE
  8
LAYER_1
 40
0.1764
 41
0.1764
 62
1
 66
1
 10
0
 20
0
 30
0
  0
VERTEX
  8
LAYER_1
 10
0.8557
 20
-155.6519
  0
VERTEX
  8
LAYER_1
 10
1.8552
 20
-153.9208
  0
SEQEND
  0
POLYLINE
  8
LAYER_1
 40
0.1764
 41
0.1764
 62
1
 66
1
 10
0
 20
0
 30
0
  0
VERTEX
  8
LAYER_1
 10
-0.1437
 20
-157.3831
  0
VERTEX
  8
LAYER_1
 10
0.8557
 20
-155.6519
  0
SEQEND
  0
POLYLINE
  8
LAYER_1
 40
0.1764
 41
0.1764
 62
1
 66
1
 10
0
 20
0
 30
0
  0
VERTEX
  8
LAYER_1
 10
5.8531
 20
-146.9963
  0
VERTEX
  8
LAYER_1
 10
-2.0778
 20
-146.9946
  0
SEQEND
  0
POLYLINE
  8
LAYER_1
 40
0.1764
 41
0.1764
 62
1
 66
1
 10
0
 20
0
 30
0
  0
VERTEX
  8
LAYER_1
 10
4.8536
 20
-148.7274
  0
VERTEX
  8
LAYER_1
 10
-2.8157
 20
-148.73
  0
SEQEND
  0
POLYLINE
  8
LAYER_1
 40
0.1764
 41
0.1764
 62
1
 66
1
 10
0
 20
0
 30
0
  0
VERTEX
  8
LAYER_1
 10
3.8542
 20
-150.4585
  0
VERTEX
  8
LAYER_1
 10
-3.7353
 20
-150.4584
  0
SEQEND
  0
POLYLINE
  8
LAYER_1
 40
0.1764
 41
0.1764
 62
1
 66
1
 10
0
 20
0
 30
0
  0
VERTEX
  8
LAYER_1
 10
-5.1445
 20
-152.1877
  0
VERTEX
  8
LAYER_1
 10
-1.1466
 20
-145.2632
  0
SEQEND
  0
POLYLINE
  8
LAYER_1
 40
0.1764
 41
0.1764
 62
1
 66
1
 10
0
 20
0
 30
0
  0
VERTEX
  8
LAYER_1
 10
-0.6497
 20
-145.2664
  0
VERTEX
  8
LAYER_1
 10
-1.1466
 20
-145.2632
  0
SEQEND
  0
POLYLINE
  8
LAYER_1
 40
0.1764
 41
0.1764
 62
1
 66
1
 10
0
 20
0
 30
0
  0
VERTEX
  8
LAYER_1
 10
-2.8157
 20
-148.73
  0
VERTEX
  8
LAYER_1
 10
-3.1456
 20
-148.7254
  0
SEQEND
  0
POLYLINE
  8
LAYER_1
 40
0.1764
 41
0.1764
 62
1
 66
1
 10
0
 20
0
 30
0
  0
VERTEX
  8
LAYER_1
 10
-3.7353
 20
-150.4584
  0
VERTEX
  8
LAYER_1
 10
-4.145
 20
-150.4565
  0
SEQEND
  0
POLYLINE
  8
LAYER_1
 40
0.1764
 41
0.1764
 62
1
 66
1
 10
0
 20
0
 30
0
  0
VERTEX
  8
LAYER_1
 10
-1.1474
 20
-159.1215
  0
VERTEX
  8
LAYER_1
 10
-5.1445
 20
-152.1877
  0
SEQEND
  0
POLYLINE
  8
LAYER_1
 40
0.1764
 41
0.1764
 62
1
 66
1
 10
0
 20
0
 30
0
  0
VERTEX
  8
LAYER_1
 10
2.8547
 20
-152.1897
  0
VERTEX
  8
LAYER_1
 10
-5.1445
 20
-152.1877
  0
SEQEND
  0
POLYLINE
  8
LAYER_1
 40
0.1764
 41
0.1764
 62
1
 66
1
 10
0
 20
0
 30
0
  0
VERTEX
  8
LAYER_1
 10
1.8552
 20
-153.9208
  0
VERTEX
  8
LAYER_1
 10
0.8586
 20
-152.1913
  0
SEQEND
  0
POLYLINE
  8
LAYER_1
 40
0.1764
 41
0.1764
 62
1
 66
1
 10
0
 20
0
 30
0
  0
VERTEX
  8
LAYER_1
 10
0.8558
 20
-155.6519
  0
VERTEX
  8
LAYER_1
 10
-1.1449
 20
-152.1887
  0
SEQEND
  0
POLYLINE
  8
LAYER_1
 40
0.1764
 41
0.1764
 62
1
 66
1
 10
0
 20
0
 30
0
  0
VERTEX
  8
LAYER_1
 10
-0.1437
 20
-157.383
  0
VERTEX
  8
LAYER_1
 10
-3.141
 20
-152.1903
  0
SEQEND
  0
TEXT
  8
LAYER_1
 10
0.7612
 20
-151.6921
 11
0.7612
 21
-151.6921
 40
4.1737
 41
0.5
 50
60.00013103
  1
B
  0
ENDBLK
  0
BLOCK
  8
LAYER_1
  2
AIGNBL01010068
 70
64
 10
0
 20
0
 30
0
  3
AIGNBL01010068
  0
POLYLINE
  8
LAYER_1
 40
0.05
 41
0.05
 66
1
 10
0
 20
0
 30
0
 70
1
  0
VERTEX
  8
LAYER_1
 10
-28.2754
 20
-235.6092
  0
VERTEX
  8
LAYER_1
 10
-27.2764
 20
-235.6092
  0
VERTEX
  8
LAYER_1
 10
-27.2764
 20
-237.8786
  0
VERTEX
  8
LAYER_1
 10
-24.6779
 20
-237.8786
  0
VERTEX
  8
LAYER_1
 10
-24.6779
 20
-235.6092
  0
VERTEX
  8
LAYER_1
 10
-23.679
 20
-235.6092
  0
VERTEX
  8
LAYER_1
 10
-23.679
 20
-241.3163
  0
VERTEX
  8
LAYER_1
 10
-24.6779
 20
-241.3163
  0
VERTEX
  8
LAYER_1
 10
-24.6779
 20
-238.7437
  0
VERTEX
  8
LAYER_1
 10
-27.2764
 20
-238.7437
  0
VERTEX
  8
LAYER_1
 10
-27.2759
 20
-241.3163
  0
VERTEX
  8
LAYER_1
 10
-28.2754
 20
-241.3163
  0
SEQEND
  0
POLYLINE
  8
LAYER_1
 40
0.05
 41
0.05
 66
1
 10
0
 20
0
 30
0
 70
1
  0
VERTEX
  8
LAYER_1
 10
-23.2646
 20
-237.9094
  0
VERTEX
  8
LAYER_1
 10
-22.3534
 20
-237.9094
  0
VERTEX
  8
LAYER_1
 10
-22.3534
 20
-241.3163
  0
VERTEX
  8
LAYER_1
 10
-23.2646
 20
-241.3163
  0
SEQEND
  0
POLYLINE
  8
LAYER_1
 40
0.05
 41
0.05
 66
1
 10
0
 20
0
 30
0
 70
1
  0
VERTEX
  8
LAYER_1
 10
-21.9369
 20
-237.9094
  0
VERTEX
  8
LAYER_1
 10
-20.4209
 20
-237.9094
  0
VERTEX
  8
LAYER_1
 10
-20.4209
 20
-238.7739
  0
VERTEX
  8
LAYER_1
 10
-21.9369
 20
-238.7739
  0
SEQEND
  0
POLYLINE
  8
LAYER_1
 40
0.05
 41
0.05
 66
1
 10
0
 20
0
 30
0
 70
1
  0
VERTEX
  8
LAYER_1
 10
-15.8827
 20
-237.4246
 42
0.1052921723
  0
VERTEX
  8
LAYER_1
 10
-16.1867
 20
-236.7776
 42
0.1257645583
  0
VERTEX
  8
LAYER_1
 10
-16.6682
 20
-236.4079
 42
0.1014306612
  0
VERTEX
  8
LAYER_1
 10
-17.3049
 20
-236.2886
 42
0.1081053876
  0
VERTEX
  8
LAYER_1
 10
-18.0076
 20
-236.4324
 42
0.112164396
  0
VERTEX
  8
LAYER_1
 10
-18.5332
 20
-236.8368
 42
0.0961210096
  0
VERTEX
  8
LAYER_1
 10
-18.8987
 20
-237.5198
 42
0.0775223022
  0
VERTEX
  8
LAYER_1
 10
-19.039
 20
-238.4631
 42
0.0800315997
  0
VERTEX
  8
LAYER_1
 10
-18.8911
 20
-239.4294
 42
0.09720455451
  0
VERTEX
  8
LAYER_1
 10
-18.5183
 20
-240.1065
 42
0.2253507452
  0
VERTEX
  8
LAYER_1
 10
-17.3049
 20
-240.6371
 42
0.1177887421
  0
VERTEX
  8
LAYER_1
 10
-16.6517
 20
-240.4908
 42
0.1208595778
  0
VERTEX
  8
LAYER_1
 10
-16.1786
 20
-240.0821
 42
0.1346194098
  0
VERTEX
  8
LAYER_1
 10
-15.85
 20
-239.1431
  0
VERTEX
  8
LAYER_1
 10
-14.8754
 20
-239.1431
 42
-0.08330854133
  0
VERTEX
  8
LAYER_1
 10
-15.0717
 20
-240.0273
 42
-0.3077147413
  0
VERTEX
  8
LAYER_1
 10
-17.3049
 20
-241.453
 42
-0.0792470512
  0
VERTEX
  8
LAYER_1
 10
-18.1925
 20
-241.3169
 42
-0.1729202028
  0
VERTEX
  8
LAYER_1
 10
-19.5364
 20
-240.2723
 42
-0.07989755281
  0
VERTEX
  8
LAYER_1
 10
-19.9242
 20
-239.3798
 42
-0.06352064474
  0
VERTEX
  8
LAYER_1
 10
-20.0388
 20
-238.4631
 42
-0.07181830262
  0
VERTEX
  8
LAYER_1
 10
-19.8954
 20
-237.4436
 42
-0.07804335515
  0
VERTEX
  8
LAYER_1
 10
-19.4985
 20
-236.5982
 42
-0.2508286473
  0
VERTEX
  8
LAYER_1
 10
-17.3049
 20
-235.4737
 42
-0.07922924952
  0
VERTEX
  8
LAYER_1
 10
-16.3485
 20
-235.6254
 42
-0.09001284445
  0
VERTEX
  8
LAYER_1
 10
-15.6165
 20
-236.0217
 42
-0.2035526241
  0
VERTEX
  8
LAYER_1
 10
-14.8828
 20
-237.4246
  0
SEQEND
  0
INSERT
  8
LAYER_1
  2
AIGNBL01020069
 10
0
 20
0
 30
0
  0
POLYLINE
  8
LAYER_1
 40
0.05
 41
0.05
 66
1
 10
0
 20
0
 30
0
 70
1
  0
VERTEX
  8
LAYER_1
 10
-10.2624
 20
-237.1841
  0
VERTEX
  8
LAYER_1
 10
-9.408
 20
-237.1841
  0
VERTEX
  8
LAYER_1
 10
-9.408
 20
-237.9831
  0
VERTEX
  8
LAYER_1
 10
-9.3926
 20
-237.9831
 42
-0.132735082
  0
VERTEX
  8
LAYER_1
 10
-9.0937
 20
-237.4838
 42
-0.1882303303
  0
VERTEX
  8
LAYER_1
 10
-8.1867
 20
-237.0726
  0
VERTEX
  8
LAYER_1
 10
-7.8426
 20
-237.0964
  0
VERTEX
  8
LAYER_1
 10
-7.8426
 20
-237.9751
  0
VERTEX
  8
LAYER_1
 10
-8.2328
 20
-237.9347
 42
0.2785078637
  0
VERTEX
  8
LAYER_1
 10
-9.162
 20
-238.5016
 42
0.1259947591
  0
VERTEX
  8
LAYER_1
 10
-9.3517
 20
-239.3504
  0
VERTEX
  8
LAYER_1
 10
-9.3517
 20
-241.3163
  0
VERTEX
  8
LAYER_1
 10
-10.2624
 20
-241.3163
  0
SEQEND
  0
INSERT
  8
LAYER_1
  2
AIGNBL0102006A
 10
0
 20
0
 30
0
  0
POLYLINE
  8
LAYER_1
 40
0.05
 41
0.05
 66
1
 10
0
 20
0
 30
0
 70
1
  0
VERTEX
  8
LAYER_1
 10
-3.3278
 20
-237.1841
  0
VERTEX
  8
LAYER_1
 10
-2.466
 20
-237.1841
  0
VERTEX
  8
LAYER_1
 10
-2.466
 20
-237.7594
  0
VERTEX
  8
LAYER_1
 10
-2.4421
 20
-237.7594
 42
-0.1124773113
  0
VERTEX
  8
LAYER_1
 10
-1.949
 20
-237.2631
 42
-0.1404330004
  0
VERTEX
  8
LAYER_1
 10
-1.1703
 20
-237.0716
 42
-0.316425527
  0
VERTEX
  8
LAYER_1
 10
-0.011
 20
-237.7594
 42
-0.1079694146
  0
VERTEX
  8
LAYER_1
 10
0.516
 20
-237.2627
 42
-0.134345397
  0
VERTEX
  8
LAYER_1
 10
1.2847
 20
-237.0716
 42
-0.1055536835
  0
VERTEX
  8
LAYER_1
 10
2.0203
 20
-237.2042
 42
-0.1411270444
  0
VERTEX
  8
LAYER_1
 10
2.4424
 20
-237.5538
 42
-0.120906486
  0
VERTEX
  8
LAYER_1
 10
2.6525
 20
-238.1753
 42
-0.03591928657
  0
VERTEX
  8
LAYER_1
 10
2.6682
 20
-238.4631
  0
VERTEX
  8
LAYER_1
 10
2.6682
 20
-241.3163
  0
VERTEX
  8
LAYER_1
 10
1.7563
 20
-241.3163
  0
VERTEX
  8
LAYER_1
 10
1.7563
 20
-238.9019
 42
0.1115818348
  0
VERTEX
  8
LAYER_1
 10
1.6564
 20
-238.1199
 42
0.1987921507
  0
VERTEX
  8
LAYER_1
 10
1.371
 20
-237.85
 42
0.08635838492
  0
VERTEX
  8
LAYER_1
 10
1.0038
 20
-237.7916
 42
0.149711414
  0
VERTEX
  8
LAYER_1
 10
0.4994
 20
-237.9251
 42
0.1601855652
  0
VERTEX
  8
LAYER_1
 10
0.2137
 20
-238.307
 42
0.084598827
  0
VERTEX
  8
LAYER_1
 10
0.1258
 20
-238.8935
  0
VERTEX
  8
LAYER_1
 10
0.1258
 20
-241.3163
  0
VERTEX
  8
LAYER_1
 10
-0.786
 20
-241.3163
  0
VERTEX
  8
LAYER_1
 10
-0.786
 20
-238.6632
 42
0.1327136508
  0
VERTEX
  8
LAYER_1
 10
-0.9039
 20
-238.073
 42
0.1959206653
  0
VERTEX
  8
LAYER_1
 10
-1.2225
 20
-237.8289
 42
0.06434075579
  0
VERTEX
  8
LAYER_1
 10
-1.5137
 20
-237.7916
 42
0.3010210673
  0
VERTEX
  8
LAYER_1
 10
-2.3171
 20
-238.3446
 42
0.09991648238
  0
VERTEX
  8
LAYER_1
 10
-2.4156
 20
-238.8628
  0
VERTEX
  8
LAYER_1
 10
-2.4156
 20
-241.3163
  0
VERTEX
  8
LAYER_1
 10
-3.3278
 20
-241.3163
  0
SEQEND
  0
INSERT
  8
LAYER_1
  2
AIGNBL0102006B
 10
0
 20
0
 30
0
  0
POLYLINE
  8
LAYER_1
 40
0.05
 41
0.05
 66
1
 10
0
 20
0
 30
0
 70
1
  0
VERTEX
  8
LAYER_1
 10
7.2294
 20
-238.5672
 42
0.1464447523
  0
VERTEX
  8
LAYER_1
 10
7.0199
 20
-238.0856
 42
0.2236736597
  0
VERTEX
  8
LAYER_1
 10
6.2882
 20
-237.7916
 42
0.1302500633
  0
VERTEX
  8
LAYER_1
 10
5.732
 20
-237.9293
 42
0.1406041674
  0
VERTEX
  8
LAYER_1
 10
5.3518
 20
-238.3262
 42
0.1294232474
  0
VERTEX
  8
LAYER_1
 10
5.1513
 20
-239.2944
 42
0.09750821402
  0
VERTEX
  8
LAYER_1
 10
5.2895
 20
-240.0441
 42
0.1338862906
  0
VERTEX
  8
LAYER_1
 10
5.6428
 20
-240.5193
 42
0.1658105043
  0
VERTEX
  8
LAYER_1
 10
6.2484
 20
-240.7088
 42
0.2928925571
  0
VERTEX
  8
LAYER_1
 10
7.1136
 20
-240.1626
 42
0.07126529062
  0
VERTEX
  8
LAYER_1
 10
7.2294
 20
-239.7658
  0
VERTEX
  8
LAYER_1
 10
8.1409
 20
-239.7658
 42
-0.09044610875
  0
VERTEX
  8
LAYER_1
 10
7.8733
 20
-240.5724
 42
-0.2179010094
  0
VERTEX
  8
LAYER_1
 10
6.76
 20
-241.3779
 42
-0.05161525893
  0
VERTEX
  8
LAYER_1
 10
6.2484
 20
-241.4298
 42
-0.09359589365
  0
VERTEX
  8
LAYER_1
 10
5.4356
 20
-241.2862
 42
-0.2096317525
  0
VERTEX
  8
LAYER_1
 10
4.4172
 20
-240.259
 42
-0.09657847883
  0
VERTEX
  8
LAYER_1
 10
4.242
 20
-239.2944
 42
-0.08224785352
  0
VERTEX
  8
LAYER_1
 10
4.3857
 20
-238.3714
 42
-0.09734340571
  0
VERTEX
  8
LAYER_1
 10
4.7673
 20
-237.6969
 42
-0.104191885
  0
VERTEX
  8
LAYER_1
 10
5.3406
 20
-237.265
 42
-0.111899855
  0
VERTEX
  8
LAYER_1
 10
6.2793
 20
-237.0716
 42
-0.08703368299
  0
VERTEX
  8
LAYER_1
 10
7.0997
 20
-237.2068
 42
-0.1043941753
  0
VERTEX
  8
LAYER_1
 10
7.686
 20
-237.5635
 42
-0.1875882808
  0
VERTEX
  8
LAYER_1
 10
8.1409
 20
-238.5672
  0
SEQEND
  0
POLYLINE
  8
LAYER_1
 40
0.05
 41
0.05
 66
1
 10
0
 20
0
 30
0
 70
1
  0
VERTEX
  8
LAYER_1
 10
9.3158
 20
-239.9902
 42
0.3370496068
  0
VERTEX
  8
LAYER_1
 10
9.9159
 20
-240.6732
 42
0.07255227803
  0
VERTEX
  8
LAYER_1
 10
10.2515
 20
-240.7088
 42
0.1167322896
  0
VERTEX
  8
LAYER_1
 10
10.917
 20
-240.5819
 42
0.3019935713
  0
VERTEX
  8
LAYER_1
 10
11.1698
 20
-240.1654
 42
0.2197456143
  0
VERTEX
  8
LAYER_1
 10
11.004
 20
-239.8428
 42
0.1183042302
  0
VERTEX
  8
LAYER_1
 10
10.321
 20
-239.5857
 42
0.01804930053
  0
VERTEX
  8
LAYER_1
 10
9.8189
 20
-239.4798
 42
-0.09002078879
  0
VERTEX
  8
LAYER_1
 10
8.9762
 20
-239.1765
 42
-0.2705326955
  0
VERTEX
  8
LAYER_1
 10
8.4935
 20
-238.2544
 42
-0.2834544493
  0
VERTEX
  8
LAYER_1
 10
9.0588
 20
-237.3337
 42
-0.1286799193
  0
VERTEX
  8
LAYER_1
 10
10.2188
 20
-237.0716
 42
-0.0880867054
  0
VERTEX
  8
LAYER_1
 10
11.041
 20
-237.2054
 42
-0.11603821
  0
VERTEX
  8
LAYER_1
 10
11.5979
 20
-237.562
 42
-0.1642937465
  0
VERTEX
  8
LAYER_1
 10
11.9463
 20
-238.3429
  0
VERTEX
  8
LAYER_1
 10
10.9949
 20
-238.3429
 42
0.178904242
  0
VERTEX
  8
LAYER_1
 10
10.7873
 20
-237.9686
 42
0.1811838698
  0
VERTEX
  8
LAYER_1
 10
10.1555
 20
-237.7916
 42
0.1324370715
  0
VERTEX
  8
LAYER_1
 10
9.5784
 20
-237.9195
 42
0.2683060879
  0
VERTEX
  8
LAYER_1
 10
9.4041
 20
-238.215
 42
0.232075683
  0
VERTEX
  8
LAYER_1
 10
9.5481
 20
-238.5124
 42
0.1186779173
  0
VERTEX
  8
LAYER_1
 10
10.2231
 20
-238.7668
 42
0.0187132002
  0
VERTEX
  8
LAYER_1
 10
10.7456
 20
-238.8771
 42
-0.08740832246
  0
VERTEX
  8
LAYER_1
 10
11.602
 20
-239.1918
 42
-0.2676717597
  0
VERTEX
  8
LAYER_1
 10
12.0812
 20
-240.0861
 42
-0.2593488033
  0
VERTEX
  8
LAYER_1
 10
11.5284
 20
-241.0955
 42
-0.09698509487
  0
VERTEX
  8
LAYER_1
 10
10.7845
 20
-241.3791
 42
-0.0461523146
  0
VERTEX
  8
LAYER_1
 10
10.2356
 20
-241.4298
 42
-0.08545335297
  0
VERTEX
  8
LAYER_1
 10
9.3537
 20
-241.2924
 42
-0.1112539268
  0
VERTEX
  8
LAYER_1
 10
8.7802
 20
-240.9424
 42
-0.2015927115
  0
VERTEX
  8
LAYER_1
 10
8.4036
 20
-239.9902
  0
SEQEND
  0
POLYLINE
  8
LAYER_1
 40
0.05
 41
0.05
 62
1
 66
1
 10
0
 20
0
 30
0
 70
1
  0
VERTEX
  8
LAYER_1
 10
-22.2745
 20
-235.3597
  0
VERTEX
  8
LAYER_1
 10
-23.3426
 20
-235.3597
  0
VERTEX
  8
LAYER_1
 10
-22.8068
 20
-237.7163
  0
SEQEND
  0
ENDBLK
  0
BLOCK
  8
LAYER_1
  2
AIGNBL0101006C
 70
64
 10
0
 20
0
 30
0
  3
AIGNBL0101006C
  0
POLYLINE
  8
LAYER_1
 40
0.05
 41
0.05
 62
254
 66
1
 10
0
 20
0
 30
0
 70
1
  0
VERTEX
  8
LAYER_1
 10
44.748
 20
-222.235
  0
VERTEX
  8
LAYER_1
 10
44.6466
 20
-222.1481
 42
-0.224052016
  0
VERTEX
  8
LAYER_1
 10
44.6611
 20
-222.0322
  0
VERTEX
  8
LAYER_1
 10
46.6744
 20
-218.3387
  0
VERTEX
  8
LAYER_1
 10
48.9919
 20
-214.2106
 42
-0.1314724434
  0
VERTEX
  8
LAYER_1
 10
49.7016
 20
-212.9939
 42
-0.1718137986
  0
VERTEX
  8
LAYER_1
 10
49.861
 20
-212.9505
  0
VERTEX
  8
LAYER_1
 10
54.5829
 20
-212.965
  0
VERTEX
  8
LAYER_1
 10
60.2173
 20
-213.0084
 42
-0.1404425733
  0
VERTEX
  8
LAYER_1
 10
60.8256
 20
-213.0519
 42
-0.03825118263
  0
VERTEX
  8
LAYER_1
 10
61.4195
 20
-214.0223
  0
VERTEX
  8
LAYER_1
 10
63.2445
 20
-217.122
  0
VERTEX
  8
LAYER_1
 10
65.6634
 20
-221.3225
  0
VERTEX
  8
LAYER_1
 10
66.0979
 20
-222.1336
 42
-0.4178165192
  0
VERTEX
  8
LAYER_1
 10
66.0255
 20
-222.2929
  0
VERTEX
  8
LAYER_1
 10
64.1426
 20
-222.2784
  0
VERTEX
  8
LAYER_1
 10
59.102
 20
-222.2495
  0
VERTEX
  8
LAYER_1
 10
53.7862
 20
-222.206
  0
VERTEX
  8
LAYER_1
 10
47.8042
 20
-222.235
  0
SEQEND
  0
ENDBLK
  0
ENDSEC
  0
SECTION
  2
ENTITIES
  0
INSERT
  8
LAYER_1
  2
AIGNBL01010002
 10
0
 20
0
 30
0
  0
INSERT
  8
LAYER_1
  2
AIGNBL01010004
 10
0
 20
0
 30
0
  0
INSERT
  8
LAYER_1
  2
AIGNBL01010005
 10
0
 20
0
 30
0
  0
INSERT
  8
LAYER_1
  2
AIGNBL01010007
 10
0
 20
0
 30
0
  0
INSERT
  8
LAYER_1
  2
AIGNBL01010008
 10
0
 20
0
 30
0
  0
INSERT
  8
LAYER_1
  2
AIGNBL0101000A
 10
0
 20
0
 30
0
  0
INSERT
  8
LAYER_1
  2
AIGNBL0101000B
 10
0
 20
0
 30
0
  0
INSERT
  8
LAYER_1
  2
AIGNBL0101000D
 10
0
 20
0
 30
0
  0
INSERT
  8
LAYER_1
  2
AIGNBL0101000E
 10
0
 20
0
 30
0
  0
INSERT
  8
LAYER_1
  2
AIGNBL01010010
 10
0
 20
0
 30
0
  0
INSERT
  8
LAYER_1
  2
AIGNBL01010011
 10
0
 20
0
 30
0
  0
INSERT
  8
LAYER_1
  2
AIGNBL01010013
 10
0
 20
0
 30
0
  0
INSERT
  8
LAYER_1
  2
AIGNBL01010014
 10
0
 20
0
 30
0
  0
INSERT
  8
LAYER_1
  2
AIGNBL01010016
 10
0
 20
0
 30
0
  0
INSERT
  8
LAYER_1
  2
AIGNBL01010017
 10
0
 20
0
 30
0
  0
INSERT
  8
LAYER_1
  2
AIGNBL01010019
 10
0
 20
0
 30
0
  0
INSERT
  8
LAYER_1
  2
AIGNBL0101001A
 10
0
 20
0
 30
0
  0
INSERT
  8
LAYER_1
  2
AIGNBL0101001C
 10
0
 20
0
 30
0
  0
INSERT
  8
LAYER_1
  2
AIGNBL0101001D
 10
0
 20
0
 30
0
  0
INSERT
  8
LAYER_1
  2
AIGNBL0101001F
 10
0
 20
0
 30
0
  0
INSERT
  8
LAYER_1
  2
AIGNBL01010020
 10
0
 20
0
 30
0
  0
INSERT
  8
LAYER_1
  2
AIGNBL01010022
 10
0
 20
0
 30
0
  0
INSERT
  8
LAYER_1
  2
AIGNBL01010023
 10
0
 20
0
 30
0
  0
INSERT
  8
LAYER_1
  2
AIGNBL01010025
 10
0
 20
0
 30
0
  0
INSERT
  8
LAYER_1
  2
AIGNBL01010026
 10
0
 20
0
 30
0
  0
INSERT
  8
LAYER_1
  2
AIGNBL01010028
 10
0
 20
0
 30
0
  0
INSERT
  8
LAYER_1
  2
AIGNBL01010029
 10
0
 20
0
 30
0
  0
INSERT
  8
LAYER_1
  2
AIGNBL0101002B
 10
0
 20
0
 30
0
  0
INSERT
  8
LAYER_1
  2
AIGNBL0101002C
 10
0
 20
0
 30
0
  0
INSERT
  8
LAYER_1
  2
AIGNBL0101002E
 10
0
 20
0
 30
0
  0
INSERT
  8
LAYER_1
  2
AIGNBL0101002F
 10
0
 20
0
 30
0
  0
INSERT
  8
LAYER_1
  2
AIGNBL01010031
 10
0
 20
0
 30
0
  0
INSERT
  8
LAYER_1
  2
AIGNBL01010032
 10
0
 20
0
 30
0
  0
INSERT
  8
LAYER_1
  2
AIGNBL01010034
 10
0
 20
0
 30
0
  0
INSERT
  8
LAYER_1
  2
AIGNBL01010035
 10
0
 20
0
 30
0
  0
INSERT
  8
LAYER_1
  2
AIGNBL01010037
 10
0
 20
0
 30
0
  0
INSERT
  8
LAYER_1
  2
AIGNBL01010038
 10
0
 20
0
 30
0
  0
INSERT
  8
LAYER_1
  2
AIGNBL0101003A
 10
0
 20
0
 30
0
  0
INSERT
  8
LAYER_1
  2
AIGNBL0101003B
 10
0
 20
0
 30
0
  0
INSERT
  8
LAYER_1
  2
AIGNBL0101003D
 10
0
 20
0
 30
0
  0
INSERT
  8
LAYER_1
  2
AIGNBL0101003E
 10
0
 20
0
 30
0
  0
INSERT
  8
LAYER_1
  2
AIGNBL01010040
 10
0
 20
0
 30
0
  0
INSERT
  8
LAYER_1
  2
AIGNBL01010041
 10
0
 20
0
 30
0
  0
INSERT
  8
LAYER_1
  2
AIGNBL01010043
 10
0
 20
0
 30
0
  0
INSERT
  8
LAYER_1
  2
AIGNBL01010044
 10
0
 20
0
 30
0
  0
INSERT
  8
LAYER_1
  2
AIGNBL01010046
 10
0
 20
0
 30
0
  0
INSERT
  8
LAYER_1
  2
AIGNBL01010047
 10
0
 20
0
 30
0
  0
INSERT
  8
LAYER_1
  2
AIGNBL01010049
 10
0
 20
0
 30
0
  0
INSERT
  8
LAYER_1
  2
AIGNBL0101004A
 10
0
 20
0
 30
0
  0
INSERT
  8
LAYER_1
  2
AIGNBL0101004C
 10
0
 20
0
 30
0
  0
INSERT
  8
LAYER_1
  2
AIGNBL0101004D
 10
0
 20
0
 30
0
  0
INSERT
  8
LAYER_1
  2
AIGNBL0101004F
 10
0
 20
0
 30
0
  0
INSERT
  8
LAYER_1
  2
AIGNBL01010050
 10
0
 20
0
 30
0
  0
INSERT
  8
LAYER_1
  2
AIGNBL01010052
 10
0
 20
0
 30
0
  0
INSERT
  8
LAYER_1
  2
AIGNBL01010053
 10
0
 20
0
 30
0
  0
INSERT
  8
LAYER_1
  2
AIGNBL01010055
 10
0
 20
0
 30
0
  0
INSERT
  8
LAYER_1
  2
AIGNBL01010056
 10
0
 20
0
 30
0
  0
INSERT
  8
LAYER_1
  2
AIGNBL01010058
 10
0
 20
0
 30
0
  0
INSERT
  8
LAYER_1
  2
AIGNBL01010059
 10
0
 20
0
 30
0
  0
INSERT
  8
LAYER_1
  2
AIGNBL0101005B
 10
0
 20
0
 30
0
  0
INSERT
  8
LAYER_1
  2
AIGNBL0101005C
 10
0
 20
0
 30
0
  0
INSERT
  8
LAYER_1
  2
AIGNBL0101005E
 10
0
 20
0
 30
0
  0
INSERT
  8
LAYER_1
  2
AIGNBL0101005F
 10
0
 20
0
 30
0
  0
INSERT
  8
LAYER_1
  2
AIGNBL01010061
 10
0
 20
0
 30
0
  0
INSERT
  8
LAYER_1
  2
AIGNBL01010062
 10
0
 20
0
 30
0
  0
INSERT
  8
LAYER_1
  2
AIGNBL01010064
 10
0
 20
0
 30
0
  0
INSERT
  8
LAYER_1
  2
AIGNBL01010065
 10
0
 20
0
 30
0
  0
INSERT
  8
LAYER_1
  2
AIGNBL01010067
 10
0
 20
0
 30
0
  0
POLYLINE
  8
LAYER_1
 40
0.05
 41
0.05
 66
1
 10
0
 20
0
 30
0
 70
1
  0
VERTEX
  8
LAYER_1
 10
253.8045
 20
-253.5342
  0
VERTEX
  8
LAYER_1
 10
-43.1955
 20
-253.5342
  0
VERTEX
  8
LAYER_1
 10
-43.1955
 20
-43.5342
  0
VERTEX
  8
LAYER_1
 10
253.8045
 20
-43.5342
  0
SEQEND
  0
POLYLINE
  8
LAYER_1
 40
0.3528
 41
0.3528
 66
1
 10
0
 20
0
 30
0
 70
1
  0
VERTEX
  8
LAYER_1
 10
-33.1956
 20
-233.5341
  0
VERTEX
  8
LAYER_1
 10
-33.1956
 20
-53.5342
  0
VERTEX
  8
LAYER_1
 10
243.8042
 20
-53.5342
  0
VERTEX
  8
LAYER_1
 10
243.8042
 20
-233.5341
  0
SEQEND
  0
POLYLINE
  8
LAYER_1
 40
0.3528
 41
0.3528
 66
1
 10
0
 20
0
 30
0
 70
1
  0
VERTEX
  8
LAYER_1
 10
-33.1956
 20
-233.5341
  0
VERTEX
  8
LAYER_1
 10
-33.1956
 20
-53.5342
  0
VERTEX
  8
LAYER_1
 10
243.8042
 20
-53.5342
  0
VERTEX
  8
LAYER_1
 10
243.8042
 20
-233.5341
  0
SEQEND
  0
POLYLINE
  8
LAYER_1
 40
0.3528
 41
0.3528
 66
1
 10
0
 20
0
 30
0
  0
VERTEX
  8
LAYER_1
 10
16.2512
 20
-243.5341
  0
VERTEX
  8
LAYER_1
 10
16.2512
 20
-233.5341
  0
SEQEND
  0
POLYLINE
  8
LAYER_1
 40
0.3528
 41
0.3528
 66
1
 10
0
 20
0
 30
0
  0
VERTEX
  8
LAYER_1
 10
-33.1956
 20
-243.5341
  0
VERTEX
  8
LAYER_1
 10
-33.1956
 20
-233.5341
  0
SEQEND
  0
POLYLINE
  8
LAYER_1
 40
0.3528
 41
0.3528
 66
1
 10
0
 20
0
 30
0
  0
VERTEX
  8
LAYER_1
 10
33.9612
 20
-243.5341
  0
VERTEX
  8
LAYER_1
 10
33.9612
 20
-233.5341
  0
SEQEND
  0
POLYLINE
  8
LAYER_1
 40
0.3528
 41
0.3528
 66
1
 10
0
 20
0
 30
0
  0
VERTEX
  8
LAYER_1
 10
243.8042
 20
-243.5341
  0
VERTEX
  8
LAYER_1
 10
243.8042
 20
-233.5341
  0
SEQEND
  0
POLYLINE
  8
LAYER_1
 40
0.3528
 41
0.3528
 66
1
 10
0
 20
0
 30
0
  0
VERTEX
  8
LAYER_1
 10
86.1593
 20
-243.5341
  0
VERTEX
  8
LAYER_1
 10
86.1593
 20
-233.5341
  0
SEQEND
  0
POLYLINE
  8
LAYER_1
 40
0.3528
 41
0.3528
 66
1
 10
0
 20
0
 30
0
  0
VERTEX
  8
LAYER_1
 10
243.8042
 20
-243.5341
  0
VERTEX
  8
LAYER_1
 10
-33.1956
 20
-243.5341
  0
SEQEND
  0
INSERT
  8
LAYER_1
  2
AIGNBL01010068
 10
0
 20
0
 30
0
  0
TEXT
  8
LAYER_1
 10
18.7262
 20
-239.8753
 11
18.7262
 21
-239.8753
 40
2.8695
 41
0.5
  1
シリーズ名
  0
TEXT
  8
LAYER_1
 10
36.2563
 20
-240.6884
 11
36.2563
 21
-240.6884
 40
5.5407
 41
0.5
  1
El Mago（エルマーゴ）
  0
TEXT
  8
LAYER_1
 10
89.7163
 20
-240.5086
 11
89.7163
 21
-240.5086
 40
4.6955
 41
0.5
  1
カタログ施工例タイルパターン
  0
INSERT
  8
LAYER_1
  2
AIGNBL0101006C
 10
0
 20
0
 30
0
  0
POLYLINE
  8
LAYER_1
 40
0.1058
 41
0.1058
 66
1
 10
0
 20
0
 30
0
  0
VERTEX
  8
LAYER_1
 10
42.8216
 20
-222.1902
  0
VERTEX
  8
LAYER_1
 10
42.8216
 20
-212.5672
  0
SEQEND
  0
POLYLINE
  8
LAYER_1
 40
0.1058
 41
0.1058
 66
1
 10
0
 20
0
 30
0
  0
VERTEX
  8
LAYER_1
 10
43.7627
 20
-222.1902
  0
VERTEX
  8
LAYER_1
 10
41.8805
 20
-222.1902
  0
SEQEND
  0
POLYLINE
  8
LAYER_1
 40
0.1058
 41
0.1058
 66
1
 10
0
 20
0
 30
0
  0
VERTEX
  8
LAYER_1
 10
43.7627
 20
-212.5673
  0
VERTEX
  8
LAYER_1
 10
41.8805
 20
-212.5673
  0
SEQEND
  0
TEXT
  8
LAYER_1
 10
41.9266
 20
-218.8463
 11
41.9266
 21
-218.8463
 40
2.4358
 41
0.5
 50
89.99999999
  1
69
  0
POLYLINE
  8
LAYER_1
 40
0.1058
 41
0.1058
 66
1
 10
0
 20
0
 30
0
  0
VERTEX
  8
LAYER_1
 10
49.6348
 20
-211.1299
  0
VERTEX
  8
LAYER_1
 10
60.628
 20
-211.1299
  0
SEQEND
  0
POLYLINE
  8
LAYER_1
 40
0.1058
 41
0.1058
 66
1
 10
0
 20
0
 30
0
  0
VERTEX
  8
LAYER_1
 10
49.6347
 20
-212.071
  0
VERTEX
  8
LAYER_1
 10
49.6347
 20
-210.1889
  0
SEQEND
  0
POLYLINE
  8
LAYER_1
 40
0.1058
 41
0.1058
 66
1
 10
0
 20
0
 30
0
  0
VERTEX
  8
LAYER_1
 10
60.628
 20
-212.071
  0
VERTEX
  8
LAYER_1
 10
60.628
 20
-210.1889
  0
SEQEND
  0
TEXT
  8
LAYER_1
 10
53.1265
 20
-209.9991
 11
53.1265
 21
-209.9991
 40
2.4358
 41
0.5
  1
80
  0
POLYLINE
  8
LAYER_1
 40
0.1058
 41
0.1058
 66
1
 10
0
 20
0
 30
0
  0
VERTEX
  8
LAYER_1
 10
44.7114
 20
-224.1854
  0
VERTEX
  8
LAYER_1
 10
65.6876
 20
-224.1854
  0
SEQEND
  0
POLYLINE
  8
LAYER_1
 40
0.1058
 41
0.1058
 66
1
 10
0
 20
0
 30
0
  0
VERTEX
  8
LAYER_1
 10
44.7113
 20
-225.1264
  0
VERTEX
  8
LAYER_1
 10
44.7113
 20
-223.2443
  0
SEQEND
  0
POLYLINE
  8
LAYER_1
 40
0.1058
 41
0.1058
 66
1
 10
0
 20
0
 30
0
  0
VERTEX
  8
LAYER_1
 10
65.6876
 20
-225.1264
  0
VERTEX
  8
LAYER_1
 10
65.6876
 20
-223.2443
  0
SEQEND
  0
TEXT
  8
LAYER_1
 10
53.7893
 20
-226.9547
 11
53.7893
 21
-226.9547
 40
2.4358
 41
0.5
  1
160
  0
ENDSEC
  0
EOF
