  0
SECTION
  2
HEADER
  9
$ACADVER
  1
AC1009
  9
$LUNITS
 70
2
  9
$LUPREC
 70
4
  9
$LTSCALE
 40
1.0
  9
$EXTMIN
 10
-43.1955
 20
-253.5342
 30
0
  9
$EXTMAX
 10
253.8045
 20
-43.5342
 30
0
  0
ENDSEC
  0
SECTION
  2
TABLES
  0
TABLE
  2
LTYPE
 70
256
  0
ENDTAB
  0
TABLE
  2
LAYER
 70
1
  0
LAYER
  2
LAYER_1
 70
64
 62
7
  6
CONTINUOUS
  0
ENDTAB
  0
TABLE
  2
STYLE
 70
6
  0
STYLE
  2
STANDARD
 70
0
 40
0
 50
0
 71
0
 41
0
 42
0
  3
TXT
  4
BIGFONT
  0
ENDTAB
  0
ENDSEC
  0
SECTION
  2
BLOCKS
  0
BLOCK
  8
LAYER_1
  2
AIGNBL01020003
 70
64
 10
0
 20
0
 30
0
  3
AIGNBL01020003
  0
POLYLINE
  8
LAYER_1
 40
0.1764
 41
0.1764
 62
3
 66
1
 10
0
 20
0
 30
0
  0
VERTEX
  8
LAYER_1
 10
-11.2908
 20
-85.817
  0
VERTEX
  8
LAYER_1
 10
-11.2908
 20
-69.817
  0
VERTEX
  8
LAYER_1
 10
-4.7942
 20
-73.5693
  0
SEQEND
  0
POLYLINE
  8
LAYER_1
 40
0.1764
 41
0.1764
 62
3
 66
1
 10
0
 20
0
 30
0
  0
VERTEX
  8
LAYER_1
 10
-11.2908
 20
-71.816
  0
VERTEX
  8
LAYER_1
 10
-11.2908
 20
-69.817
  0
SEQEND
  0
POLYLINE
  8
LAYER_1
 40
0.1764
 41
0.1764
 62
3
 66
1
 10
0
 20
0
 30
0
  0
VERTEX
  8
LAYER_1
 10
-11.2908
 20
-73.8149
  0
VERTEX
  8
LAYER_1
 10
-11.2908
 20
-71.816
  0
SEQEND
  0
POLYLINE
  8
LAYER_1
 40
0.1764
 41
0.1764
 62
3
 66
1
 10
0
 20
0
 30
0
  0
VERTEX
  8
LAYER_1
 10
-11.2908
 20
-75.8138
  0
VERTEX
  8
LAYER_1
 10
-11.2908
 20
-73.8149
  0
SEQEND
  0
POLYLINE
  8
LAYER_1
 40
0.1764
 41
0.1764
 62
3
 66
1
 10
0
 20
0
 30
0
  0
VERTEX
  8
LAYER_1
 10
-11.2908
 20
-77.8128
  0
VERTEX
  8
LAYER_1
 10
-11.2908
 20
-75.8138
  0
SEQEND
  0
POLYLINE
  8
LAYER_1
 40
0.1764
 41
0.1764
 62
3
 66
1
 10
0
 20
0
 30
0
  0
VERTEX
  8
LAYER_1
 10
-11.2908
 20
-79.8117
  0
VERTEX
  8
LAYER_1
 10
-11.2908
 20
-77.8128
  0
SEQEND
  0
POLYLINE
  8
LAYER_1
 40
0.1764
 41
0.1764
 62
3
 66
1
 10
0
 20
0
 30
0
  0
VERTEX
  8
LAYER_1
 10
-11.2908
 20
-81.8106
  0
VERTEX
  8
LAYER_1
 10
-11.2908
 20
-79.8117
  0
SEQEND
  0
POLYLINE
  8
LAYER_1
 40
0.1764
 41
0.1764
 62
3
 66
1
 10
0
 20
0
 30
0
  0
VERTEX
  8
LAYER_1
 10
-11.2908
 20
-83.8095
  0
VERTEX
  8
LAYER_1
 10
-11.2908
 20
-81.8106
  0
SEQEND
  0
POLYLINE
  8
LAYER_1
 40
0.1764
 41
0.1764
 62
3
 66
1
 10
0
 20
0
 30
0
  0
VERTEX
  8
LAYER_1
 10
-11.2908
 20
-71.8159
  0
VERTEX
  8
LAYER_1
 10
-4.4215
 20
-75.7799
  0
SEQEND
  0
POLYLINE
  8
LAYER_1
 40
0.1764
 41
0.1764
 62
3
 66
1
 10
0
 20
0
 30
0
  0
VERTEX
  8
LAYER_1
 10
-11.2908
 20
-73.8149
  0
VERTEX
  8
LAYER_1
 10
-4.6502
 20
-77.6518
  0
SEQEND
  0
POLYLINE
  8
LAYER_1
 40
0.1764
 41
0.1764
 62
3
 66
1
 10
0
 20
0
 30
0
  0
VERTEX
  8
LAYER_1
 10
-11.2908
 20
-75.8138
  0
VERTEX
  8
LAYER_1
 10
-4.718
 20
-79.6084
  0
SEQEND
  0
POLYLINE
  8
LAYER_1
 40
0.1764
 41
0.1764
 62
3
 66
1
 10
0
 20
0
 30
0
  0
VERTEX
  8
LAYER_1
 10
-4.3623
 20
-81.8106
  0
VERTEX
  8
LAYER_1
 10
-4.3623
 20
-73.8149
  0
SEQEND
  0
POLYLINE
  8
LAYER_1
 40
0.1764
 41
0.1764
 62
3
 66
1
 10
0
 20
0
 30
0
  0
VERTEX
  8
LAYER_1
 10
-4.7942
 20
-73.5692
  0
VERTEX
  8
LAYER_1
 10
-4.3623
 20
-73.8149
  0
SEQEND
  0
POLYLINE
  8
LAYER_1
 40
0.1764
 41
0.1764
 62
3
 66
1
 10
0
 20
0
 30
0
  0
VERTEX
  8
LAYER_1
 10
-4.6502
 20
-77.6518
  0
VERTEX
  8
LAYER_1
 10
-4.3623
 20
-77.8127
  0
SEQEND
  0
POLYLINE
  8
LAYER_1
 40
0.1764
 41
0.1764
 62
3
 66
1
 10
0
 20
0
 30
0
  0
VERTEX
  8
LAYER_1
 10
-4.718
 20
-79.6084
  0
VERTEX
  8
LAYER_1
 10
-4.3623
 20
-79.8117
  0
SEQEND
  0
POLYLINE
  8
LAYER_1
 40
0.1764
 41
0.1764
 62
3
 66
1
 10
0
 20
0
 30
0
  0
VERTEX
  8
LAYER_1
 10
-11.2908
 20
-85.8169
  0
VERTEX
  8
LAYER_1
 10
-4.3623
 20
-81.8106
  0
SEQEND
  0
POLYLINE
  8
LAYER_1
 40
0.1764
 41
0.1764
 62
3
 66
1
 10
0
 20
0
 30
0
  0
VERTEX
  8
LAYER_1
 10
-11.2908
 20
-77.8127
  0
VERTEX
  8
LAYER_1
 10
-4.3623
 20
-81.8106
  0
SEQEND
  0
POLYLINE
  8
LAYER_1
 40
0.1764
 41
0.1764
 62
3
 66
1
 10
0
 20
0
 30
0
  0
VERTEX
  8
LAYER_1
 10
-11.2908
 20
-79.8117
  0
VERTEX
  8
LAYER_1
 10
-9.5629
 20
-78.8122
  0
SEQEND
  0
POLYLINE
  8
LAYER_1
 40
0.1764
 41
0.1764
 62
3
 66
1
 10
0
 20
0
 30
0
  0
VERTEX
  8
LAYER_1
 10
-11.2908
 20
-81.8106
  0
VERTEX
  8
LAYER_1
 10
-7.8265
 20
-79.8117
  0
SEQEND
  0
POLYLINE
  8
LAYER_1
 40
0.1764
 41
0.1764
 62
3
 66
1
 10
0
 20
0
 30
0
  0
VERTEX
  8
LAYER_1
 10
-11.2908
 20
-83.8095
  0
VERTEX
  8
LAYER_1
 10
-6.0986
 20
-80.8111
  0
SEQEND
  0
ENDBLK
  0
BLOCK
  8
LAYER_1
  2
AIGNBL01020006
 70
64
 10
0
 20
0
 30
0
  3
AIGNBL01020006
  0
POLYLINE
  8
LAYER_1
 40
0.1764
 41
0.1764
 62
3
 66
1
 10
0
 20
0
 30
0
  0
VERTEX
  8
LAYER_1
 10
-3.8241
 20
-98.3188
  0
VERTEX
  8
LAYER_1
 10
-3.8241
 20
-82.3189
  0
VERTEX
  8
LAYER_1
 10
2.6724
 20
-86.0711
  0
SEQEND
  0
POLYLINE
  8
LAYER_1
 40
0.1764
 41
0.1764
 62
3
 66
1
 10
0
 20
0
 30
0
  0
VERTEX
  8
LAYER_1
 10
-3.8241
 20
-84.3178
  0
VERTEX
  8
LAYER_1
 10
-3.8241
 20
-82.3189
  0
SEQEND
  0
POLYLINE
  8
LAYER_1
 40
0.1764
 41
0.1764
 62
3
 66
1
 10
0
 20
0
 30
0
  0
VERTEX
  8
LAYER_1
 10
-3.8241
 20
-86.3167
  0
VERTEX
  8
LAYER_1
 10
-3.8241
 20
-84.3178
  0
SEQEND
  0
POLYLINE
  8
LAYER_1
 40
0.1764
 41
0.1764
 62
3
 66
1
 10
0
 20
0
 30
0
  0
VERTEX
  8
LAYER_1
 10
-3.8241
 20
-88.3157
  0
VERTEX
  8
LAYER_1
 10
-3.8241
 20
-86.3167
  0
SEQEND
  0
POLYLINE
  8
LAYER_1
 40
0.1764
 41
0.1764
 62
3
 66
1
 10
0
 20
0
 30
0
  0
VERTEX
  8
LAYER_1
 10
-3.8241
 20
-90.3146
  0
VERTEX
  8
LAYER_1
 10
-3.8241
 20
-88.3157
  0
SEQEND
  0
POLYLINE
  8
LAYER_1
 40
0.1764
 41
0.1764
 62
3
 66
1
 10
0
 20
0
 30
0
  0
VERTEX
  8
LAYER_1
 10
-3.8241
 20
-92.3135
  0
VERTEX
  8
LAYER_1
 10
-3.8241
 20
-90.3146
  0
SEQEND
  0
POLYLINE
  8
LAYER_1
 40
0.1764
 41
0.1764
 62
3
 66
1
 10
0
 20
0
 30
0
  0
VERTEX
  8
LAYER_1
 10
-3.8241
 20
-94.3125
  0
VERTEX
  8
LAYER_1
 10
-3.8241
 20
-92.3135
  0
SEQEND
  0
POLYLINE
  8
LAYER_1
 40
0.1764
 41
0.1764
 62
3
 66
1
 10
0
 20
0
 30
0
  0
VERTEX
  8
LAYER_1
 10
-3.8241
 20
-96.3114
  0
VERTEX
  8
LAYER_1
 10
-3.8241
 20
-94.3125
  0
SEQEND
  0
POLYLINE
  8
LAYER_1
 40
0.1764
 41
0.1764
 62
3
 66
1
 10
0
 20
0
 30
0
  0
VERTEX
  8
LAYER_1
 10
-3.8241
 20
-84.3178
  0
VERTEX
  8
LAYER_1
 10
3.0451
 20
-88.2818
  0
SEQEND
  0
POLYLINE
  8
LAYER_1
 40
0.1764
 41
0.1764
 62
3
 66
1
 10
0
 20
0
 30
0
  0
VERTEX
  8
LAYER_1
 10
-3.8241
 20
-86.3167
  0
VERTEX
  8
LAYER_1
 10
2.8164
 20
-90.1537
  0
SEQEND
  0
POLYLINE
  8
LAYER_1
 40
0.1764
 41
0.1764
 62
3
 66
1
 10
0
 20
0
 30
0
  0
VERTEX
  8
LAYER_1
 10
-3.8241
 20
-88.3156
  0
VERTEX
  8
LAYER_1
 10
2.7487
 20
-92.1102
  0
SEQEND
  0
POLYLINE
  8
LAYER_1
 40
0.1764
 41
0.1764
 62
3
 66
1
 10
0
 20
0
 30
0
  0
VERTEX
  8
LAYER_1
 10
3.1044
 20
-94.3124
  0
VERTEX
  8
LAYER_1
 10
3.1044
 20
-86.3167
  0
SEQEND
  0
POLYLINE
  8
LAYER_1
 40
0.1764
 41
0.1764
 62
3
 66
1
 10
0
 20
0
 30
0
  0
VERTEX
  8
LAYER_1
 10
2.6724
 20
-86.0711
  0
VERTEX
  8
LAYER_1
 10
3.1044
 20
-86.3167
  0
SEQEND
  0
POLYLINE
  8
LAYER_1
 40
0.1764
 41
0.1764
 62
3
 66
1
 10
0
 20
0
 30
0
  0
VERTEX
  8
LAYER_1
 10
2.8164
 20
-90.1536
  0
VERTEX
  8
LAYER_1
 10
3.1044
 20
-90.3146
  0
SEQEND
  0
POLYLINE
  8
LAYER_1
 40
0.1764
 41
0.1764
 62
3
 66
1
 10
0
 20
0
 30
0
  0
VERTEX
  8
LAYER_1
 10
2.7487
 20
-92.1102
  0
VERTEX
  8
LAYER_1
 10
3.1044
 20
-92.3135
  0
SEQEND
  0
POLYLINE
  8
LAYER_1
 40
0.1764
 41
0.1764
 62
3
 66
1
 10
0
 20
0
 30
0
  0
VERTEX
  8
LAYER_1
 10
-3.8241
 20
-98.3188
  0
VERTEX
  8
LAYER_1
 10
3.1044
 20
-94.3124
  0
SEQEND
  0
POLYLINE
  8
LAYER_1
 40
0.1764
 41
0.1764
 62
3
 66
1
 10
0
 20
0
 30
0
  0
VERTEX
  8
LAYER_1
 10
-3.8241
 20
-90.3146
  0
VERTEX
  8
LAYER_1
 10
3.1044
 20
-94.3124
  0
SEQEND
  0
POLYLINE
  8
LAYER_1
 40
0.1764
 41
0.1764
 62
3
 66
1
 10
0
 20
0
 30
0
  0
VERTEX
  8
LAYER_1
 10
-3.8241
 20
-92.3135
  0
VERTEX
  8
LAYER_1
 10
-2.0962
 20
-91.314
  0
SEQEND
  0
POLYLINE
  8
LAYER_1
 40
0.1764
 41
0.1764
 62
3
 66
1
 10
0
 20
0
 30
0
  0
VERTEX
  8
LAYER_1
 10
-3.8241
 20
-94.3124
  0
VERTEX
  8
LAYER_1
 10
-0.3598
 20
-92.3135
  0
SEQEND
  0
POLYLINE
  8
LAYER_1
 40
0.1764
 41
0.1764
 62
3
 66
1
 10
0
 20
0
 30
0
  0
VERTEX
  8
LAYER_1
 10
-3.8241
 20
-96.3114
  0
VERTEX
  8
LAYER_1
 10
1.368
 20
-93.313
  0
SEQEND
  0
ENDBLK
  0
BLOCK
  8
LAYER_1
  2
AIGNBL01020009
 70
64
 10
0
 20
0
 30
0
  3
AIGNBL01020009
  0
POLYLINE
  8
LAYER_1
 40
0.1764
 41
0.1764
 62
3
 66
1
 10
0
 20
0
 30
0
  0
VERTEX
  8
LAYER_1
 10
3.6044
 20
-85.817
  0
VERTEX
  8
LAYER_1
 10
3.6044
 20
-69.817
  0
VERTEX
  8
LAYER_1
 10
10.1009
 20
-73.5693
  0
SEQEND
  0
POLYLINE
  8
LAYER_1
 40
0.1764
 41
0.1764
 62
3
 66
1
 10
0
 20
0
 30
0
  0
VERTEX
  8
LAYER_1
 10
3.6044
 20
-71.816
  0
VERTEX
  8
LAYER_1
 10
3.6044
 20
-69.817
  0
SEQEND
  0
POLYLINE
  8
LAYER_1
 40
0.1764
 41
0.1764
 62
3
 66
1
 10
0
 20
0
 30
0
  0
VERTEX
  8
LAYER_1
 10
3.6044
 20
-73.8149
  0
VERTEX
  8
LAYER_1
 10
3.6044
 20
-71.816
  0
SEQEND
  0
POLYLINE
  8
LAYER_1
 40
0.1764
 41
0.1764
 62
3
 66
1
 10
0
 20
0
 30
0
  0
VERTEX
  8
LAYER_1
 10
3.6044
 20
-75.8138
  0
VERTEX
  8
LAYER_1
 10
3.6044
 20
-73.8149
  0
SEQEND
  0
POLYLINE
  8
LAYER_1
 40
0.1764
 41
0.1764
 62
3
 66
1
 10
0
 20
0
 30
0
  0
VERTEX
  8
LAYER_1
 10
3.6044
 20
-77.8128
  0
VERTEX
  8
LAYER_1
 10
3.6044
 20
-75.8138
  0
SEQEND
  0
POLYLINE
  8
LAYER_1
 40
0.1764
 41
0.1764
 62
3
 66
1
 10
0
 20
0
 30
0
  0
VERTEX
  8
LAYER_1
 10
3.6044
 20
-79.8117
  0
VERTEX
  8
LAYER_1
 10
3.6044
 20
-77.8128
  0
SEQEND
  0
POLYLINE
  8
LAYER_1
 40
0.1764
 41
0.1764
 62
3
 66
1
 10
0
 20
0
 30
0
  0
VERTEX
  8
LAYER_1
 10
3.6044
 20
-81.8106
  0
VERTEX
  8
LAYER_1
 10
3.6044
 20
-79.8117
  0
SEQEND
  0
POLYLINE
  8
LAYER_1
 40
0.1764
 41
0.1764
 62
3
 66
1
 10
0
 20
0
 30
0
  0
VERTEX
  8
LAYER_1
 10
3.6044
 20
-83.8095
  0
VERTEX
  8
LAYER_1
 10
3.6044
 20
-81.8106
  0
SEQEND
  0
POLYLINE
  8
LAYER_1
 40
0.1764
 41
0.1764
 62
3
 66
1
 10
0
 20
0
 30
0
  0
VERTEX
  8
LAYER_1
 10
3.6044
 20
-71.8159
  0
VERTEX
  8
LAYER_1
 10
10.4736
 20
-75.7799
  0
SEQEND
  0
POLYLINE
  8
LAYER_1
 40
0.1764
 41
0.1764
 62
3
 66
1
 10
0
 20
0
 30
0
  0
VERTEX
  8
LAYER_1
 10
3.6044
 20
-73.8149
  0
VERTEX
  8
LAYER_1
 10
10.2449
 20
-77.6518
  0
SEQEND
  0
POLYLINE
  8
LAYER_1
 40
0.1764
 41
0.1764
 62
3
 66
1
 10
0
 20
0
 30
0
  0
VERTEX
  8
LAYER_1
 10
3.6044
 20
-75.8138
  0
VERTEX
  8
LAYER_1
 10
10.1772
 20
-79.6084
  0
SEQEND
  0
POLYLINE
  8
LAYER_1
 40
0.1764
 41
0.1764
 62
3
 66
1
 10
0
 20
0
 30
0
  0
VERTEX
  8
LAYER_1
 10
10.5329
 20
-81.8106
  0
VERTEX
  8
LAYER_1
 10
10.5329
 20
-73.8149
  0
SEQEND
  0
POLYLINE
  8
LAYER_1
 40
0.1764
 41
0.1764
 62
3
 66
1
 10
0
 20
0
 30
0
  0
VERTEX
  8
LAYER_1
 10
10.1009
 20
-73.5692
  0
VERTEX
  8
LAYER_1
 10
10.5329
 20
-73.8149
  0
SEQEND
  0
POLYLINE
  8
LAYER_1
 40
0.1764
 41
0.1764
 62
3
 66
1
 10
0
 20
0
 30
0
  0
VERTEX
  8
LAYER_1
 10
10.2449
 20
-77.6518
  0
VERTEX
  8
LAYER_1
 10
10.5329
 20
-77.8127
  0
SEQEND
  0
POLYLINE
  8
LAYER_1
 40
0.1764
 41
0.1764
 62
3
 66
1
 10
0
 20
0
 30
0
  0
VERTEX
  8
LAYER_1
 10
10.1772
 20
-79.6084
  0
VERTEX
  8
LAYER_1
 10
10.5329
 20
-79.8117
  0
SEQEND
  0
POLYLINE
  8
LAYER_1
 40
0.1764
 41
0.1764
 62
3
 66
1
 10
0
 20
0
 30
0
  0
VERTEX
  8
LAYER_1
 10
3.6044
 20
-85.8169
  0
VERTEX
  8
LAYER_1
 10
10.5329
 20
-81.8106
  0
SEQEND
  0
POLYLINE
  8
LAYER_1
 40
0.1764
 41
0.1764
 62
3
 66
1
 10
0
 20
0
 30
0
  0
VERTEX
  8
LAYER_1
 10
3.6044
 20
-77.8127
  0
VERTEX
  8
LAYER_1
 10
10.5329
 20
-81.8106
  0
SEQEND
  0
POLYLINE
  8
LAYER_1
 40
0.1764
 41
0.1764
 62
3
 66
1
 10
0
 20
0
 30
0
  0
VERTEX
  8
LAYER_1
 10
3.6044
 20
-79.8117
  0
VERTEX
  8
LAYER_1
 10
5.3323
 20
-78.8122
  0
SEQEND
  0
POLYLINE
  8
LAYER_1
 40
0.1764
 41
0.1764
 62
3
 66
1
 10
0
 20
0
 30
0
  0
VERTEX
  8
LAYER_1
 10
3.6044
 20
-81.8106
  0
VERTEX
  8
LAYER_1
 10
7.0687
 20
-79.8117
  0
SEQEND
  0
POLYLINE
  8
LAYER_1
 40
0.1764
 41
0.1764
 62
3
 66
1
 10
0
 20
0
 30
0
  0
VERTEX
  8
LAYER_1
 10
3.6044
 20
-83.8095
  0
VERTEX
  8
LAYER_1
 10
8.7966
 20
-80.8111
  0
SEQEND
  0
ENDBLK
  0
BLOCK
  8
LAYER_1
  2
AIGNBL0102000C
 70
64
 10
0
 20
0
 30
0
  3
AIGNBL0102000C
  0
POLYLINE
  8
LAYER_1
 40
0.1764
 41
0.1764
 62
3
 66
1
 10
0
 20
0
 30
0
  0
VERTEX
  8
LAYER_1
 10
11.0711
 20
-98.3188
  0
VERTEX
  8
LAYER_1
 10
11.0711
 20
-82.3189
  0
VERTEX
  8
LAYER_1
 10
17.5676
 20
-86.0711
  0
SEQEND
  0
POLYLINE
  8
LAYER_1
 40
0.1764
 41
0.1764
 62
3
 66
1
 10
0
 20
0
 30
0
  0
VERTEX
  8
LAYER_1
 10
11.0711
 20
-84.3178
  0
VERTEX
  8
LAYER_1
 10
11.0711
 20
-82.3189
  0
SEQEND
  0
POLYLINE
  8
LAYER_1
 40
0.1764
 41
0.1764
 62
3
 66
1
 10
0
 20
0
 30
0
  0
VERTEX
  8
LAYER_1
 10
11.0711
 20
-86.3167
  0
VERTEX
  8
LAYER_1
 10
11.0711
 20
-84.3178
  0
SEQEND
  0
POLYLINE
  8
LAYER_1
 40
0.1764
 41
0.1764
 62
3
 66
1
 10
0
 20
0
 30
0
  0
VERTEX
  8
LAYER_1
 10
11.0711
 20
-88.3157
  0
VERTEX
  8
LAYER_1
 10
11.0711
 20
-86.3167
  0
SEQEND
  0
POLYLINE
  8
LAYER_1
 40
0.1764
 41
0.1764
 62
3
 66
1
 10
0
 20
0
 30
0
  0
VERTEX
  8
LAYER_1
 10
11.0711
 20
-90.3146
  0
VERTEX
  8
LAYER_1
 10
11.0711
 20
-88.3157
  0
SEQEND
  0
POLYLINE
  8
LAYER_1
 40
0.1764
 41
0.1764
 62
3
 66
1
 10
0
 20
0
 30
0
  0
VERTEX
  8
LAYER_1
 10
11.0711
 20
-92.3135
  0
VERTEX
  8
LAYER_1
 10
11.0711
 20
-90.3146
  0
SEQEND
  0
POLYLINE
  8
LAYER_1
 40
0.1764
 41
0.1764
 62
3
 66
1
 10
0
 20
0
 30
0
  0
VERTEX
  8
LAYER_1
 10
11.0711
 20
-94.3125
  0
VERTEX
  8
LAYER_1
 10
11.0711
 20
-92.3135
  0
SEQEND
  0
POLYLINE
  8
LAYER_1
 40
0.1764
 41
0.1764
 62
3
 66
1
 10
0
 20
0
 30
0
  0
VERTEX
  8
LAYER_1
 10
11.0711
 20
-96.3114
  0
VERTEX
  8
LAYER_1
 10
11.0711
 20
-94.3125
  0
SEQEND
  0
POLYLINE
  8
LAYER_1
 40
0.1764
 41
0.1764
 62
3
 66
1
 10
0
 20
0
 30
0
  0
VERTEX
  8
LAYER_1
 10
11.0711
 20
-84.3178
  0
VERTEX
  8
LAYER_1
 10
17.9403
 20
-88.2818
  0
SEQEND
  0
POLYLINE
  8
LAYER_1
 40
0.1764
 41
0.1764
 62
3
 66
1
 10
0
 20
0
 30
0
  0
VERTEX
  8
LAYER_1
 10
11.0711
 20
-86.3167
  0
VERTEX
  8
LAYER_1
 10
17.7116
 20
-90.1537
  0
SEQEND
  0
POLYLINE
  8
LAYER_1
 40
0.1764
 41
0.1764
 62
3
 66
1
 10
0
 20
0
 30
0
  0
VERTEX
  8
LAYER_1
 10
11.0711
 20
-88.3156
  0
VERTEX
  8
LAYER_1
 10
17.6438
 20
-92.1102
  0
SEQEND
  0
POLYLINE
  8
LAYER_1
 40
0.1764
 41
0.1764
 62
3
 66
1
 10
0
 20
0
 30
0
  0
VERTEX
  8
LAYER_1
 10
17.9996
 20
-94.3124
  0
VERTEX
  8
LAYER_1
 10
17.9996
 20
-86.3167
  0
SEQEND
  0
POLYLINE
  8
LAYER_1
 40
0.1764
 41
0.1764
 62
3
 66
1
 10
0
 20
0
 30
0
  0
VERTEX
  8
LAYER_1
 10
17.5676
 20
-86.0711
  0
VERTEX
  8
LAYER_1
 10
17.9996
 20
-86.3167
  0
SEQEND
  0
POLYLINE
  8
LAYER_1
 40
0.1764
 41
0.1764
 62
3
 66
1
 10
0
 20
0
 30
0
  0
VERTEX
  8
LAYER_1
 10
17.7116
 20
-90.1536
  0
VERTEX
  8
LAYER_1
 10
17.9996
 20
-90.3146
  0
SEQEND
  0
POLYLINE
  8
LAYER_1
 40
0.1764
 41
0.1764
 62
3
 66
1
 10
0
 20
0
 30
0
  0
VERTEX
  8
LAYER_1
 10
17.6438
 20
-92.1102
  0
VERTEX
  8
LAYER_1
 10
17.9996
 20
-92.3135
  0
SEQEND
  0
POLYLINE
  8
LAYER_1
 40
0.1764
 41
0.1764
 62
3
 66
1
 10
0
 20
0
 30
0
  0
VERTEX
  8
LAYER_1
 10
11.0711
 20
-98.3188
  0
VERTEX
  8
LAYER_1
 10
17.9996
 20
-94.3124
  0
SEQEND
  0
POLYLINE
  8
LAYER_1
 40
0.1764
 41
0.1764
 62
3
 66
1
 10
0
 20
0
 30
0
  0
VERTEX
  8
LAYER_1
 10
11.0711
 20
-90.3146
  0
VERTEX
  8
LAYER_1
 10
17.9996
 20
-94.3124
  0
SEQEND
  0
POLYLINE
  8
LAYER_1
 40
0.1764
 41
0.1764
 62
3
 66
1
 10
0
 20
0
 30
0
  0
VERTEX
  8
LAYER_1
 10
11.0711
 20
-92.3135
  0
VERTEX
  8
LAYER_1
 10
12.799
 20
-91.314
  0
SEQEND
  0
POLYLINE
  8
LAYER_1
 40
0.1764
 41
0.1764
 62
3
 66
1
 10
0
 20
0
 30
0
  0
VERTEX
  8
LAYER_1
 10
11.0711
 20
-94.3124
  0
VERTEX
  8
LAYER_1
 10
14.5353
 20
-92.3135
  0
SEQEND
  0
POLYLINE
  8
LAYER_1
 40
0.1764
 41
0.1764
 62
3
 66
1
 10
0
 20
0
 30
0
  0
VERTEX
  8
LAYER_1
 10
11.0711
 20
-96.3114
  0
VERTEX
  8
LAYER_1
 10
16.2632
 20
-93.313
  0
SEQEND
  0
ENDBLK
  0
BLOCK
  8
LAYER_1
  2
AIGNBL0102000F
 70
64
 10
0
 20
0
 30
0
  3
AIGNBL0102000F
  0
POLYLINE
  8
LAYER_1
 40
0.1764
 41
0.1764
 62
3
 66
1
 10
0
 20
0
 30
0
  0
VERTEX
  8
LAYER_1
 10
18.4996
 20
-85.817
  0
VERTEX
  8
LAYER_1
 10
18.4996
 20
-69.817
  0
VERTEX
  8
LAYER_1
 10
24.9961
 20
-73.5693
  0
SEQEND
  0
POLYLINE
  8
LAYER_1
 40
0.1764
 41
0.1764
 62
3
 66
1
 10
0
 20
0
 30
0
  0
VERTEX
  8
LAYER_1
 10
18.4996
 20
-71.816
  0
VERTEX
  8
LAYER_1
 10
18.4996
 20
-69.817
  0
SEQEND
  0
POLYLINE
  8
LAYER_1
 40
0.1764
 41
0.1764
 62
3
 66
1
 10
0
 20
0
 30
0
  0
VERTEX
  8
LAYER_1
 10
18.4996
 20
-73.8149
  0
VERTEX
  8
LAYER_1
 10
18.4996
 20
-71.816
  0
SEQEND
  0
POLYLINE
  8
LAYER_1
 40
0.1764
 41
0.1764
 62
3
 66
1
 10
0
 20
0
 30
0
  0
VERTEX
  8
LAYER_1
 10
18.4996
 20
-75.8138
  0
VERTEX
  8
LAYER_1
 10
18.4996
 20
-73.8149
  0
SEQEND
  0
POLYLINE
  8
LAYER_1
 40
0.1764
 41
0.1764
 62
3
 66
1
 10
0
 20
0
 30
0
  0
VERTEX
  8
LAYER_1
 10
18.4996
 20
-77.8128
  0
VERTEX
  8
LAYER_1
 10
18.4996
 20
-75.8138
  0
SEQEND
  0
POLYLINE
  8
LAYER_1
 40
0.1764
 41
0.1764
 62
3
 66
1
 10
0
 20
0
 30
0
  0
VERTEX
  8
LAYER_1
 10
18.4996
 20
-79.8117
  0
VERTEX
  8
LAYER_1
 10
18.4996
 20
-77.8128
  0
SEQEND
  0
POLYLINE
  8
LAYER_1
 40
0.1764
 41
0.1764
 62
3
 66
1
 10
0
 20
0
 30
0
  0
VERTEX
  8
LAYER_1
 10
18.4996
 20
-81.8106
  0
VERTEX
  8
LAYER_1
 10
18.4996
 20
-79.8117
  0
SEQEND
  0
POLYLINE
  8
LAYER_1
 40
0.1764
 41
0.1764
 62
3
 66
1
 10
0
 20
0
 30
0
  0
VERTEX
  8
LAYER_1
 10
18.4996
 20
-83.8095
  0
VERTEX
  8
LAYER_1
 10
18.4996
 20
-81.8106
  0
SEQEND
  0
POLYLINE
  8
LAYER_1
 40
0.1764
 41
0.1764
 62
3
 66
1
 10
0
 20
0
 30
0
  0
VERTEX
  8
LAYER_1
 10
18.4996
 20
-71.8159
  0
VERTEX
  8
LAYER_1
 10
25.3688
 20
-75.7799
  0
SEQEND
  0
POLYLINE
  8
LAYER_1
 40
0.1764
 41
0.1764
 62
3
 66
1
 10
0
 20
0
 30
0
  0
VERTEX
  8
LAYER_1
 10
18.4996
 20
-73.8149
  0
VERTEX
  8
LAYER_1
 10
25.1401
 20
-77.6518
  0
SEQEND
  0
POLYLINE
  8
LAYER_1
 40
0.1764
 41
0.1764
 62
3
 66
1
 10
0
 20
0
 30
0
  0
VERTEX
  8
LAYER_1
 10
18.4996
 20
-75.8138
  0
VERTEX
  8
LAYER_1
 10
25.0723
 20
-79.6084
  0
SEQEND
  0
POLYLINE
  8
LAYER_1
 40
0.1764
 41
0.1764
 62
3
 66
1
 10
0
 20
0
 30
0
  0
VERTEX
  8
LAYER_1
 10
25.4281
 20
-81.8106
  0
VERTEX
  8
LAYER_1
 10
25.4281
 20
-73.8149
  0
SEQEND
  0
POLYLINE
  8
LAYER_1
 40
0.1764
 41
0.1764
 62
3
 66
1
 10
0
 20
0
 30
0
  0
VERTEX
  8
LAYER_1
 10
24.9961
 20
-73.5692
  0
VERTEX
  8
LAYER_1
 10
25.4281
 20
-73.8149
  0
SEQEND
  0
POLYLINE
  8
LAYER_1
 40
0.1764
 41
0.1764
 62
3
 66
1
 10
0
 20
0
 30
0
  0
VERTEX
  8
LAYER_1
 10
25.1401
 20
-77.6518
  0
VERTEX
  8
LAYER_1
 10
25.4281
 20
-77.8127
  0
SEQEND
  0
POLYLINE
  8
LAYER_1
 40
0.1764
 41
0.1764
 62
3
 66
1
 10
0
 20
0
 30
0
  0
VERTEX
  8
LAYER_1
 10
25.0723
 20
-79.6084
  0
VERTEX
  8
LAYER_1
 10
25.4281
 20
-79.8117
  0
SEQEND
  0
POLYLINE
  8
LAYER_1
 40
0.1764
 41
0.1764
 62
3
 66
1
 10
0
 20
0
 30
0
  0
VERTEX
  8
LAYER_1
 10
18.4996
 20
-85.8169
  0
VERTEX
  8
LAYER_1
 10
25.4281
 20
-81.8106
  0
SEQEND
  0
POLYLINE
  8
LAYER_1
 40
0.1764
 41
0.1764
 62
3
 66
1
 10
0
 20
0
 30
0
  0
VERTEX
  8
LAYER_1
 10
18.4996
 20
-77.8127
  0
VERTEX
  8
LAYER_1
 10
25.4281
 20
-81.8106
  0
SEQEND
  0
POLYLINE
  8
LAYER_1
 40
0.1764
 41
0.1764
 62
3
 66
1
 10
0
 20
0
 30
0
  0
VERTEX
  8
LAYER_1
 10
18.4996
 20
-79.8117
  0
VERTEX
  8
LAYER_1
 10
20.2275
 20
-78.8122
  0
SEQEND
  0
POLYLINE
  8
LAYER_1
 40
0.1764
 41
0.1764
 62
3
 66
1
 10
0
 20
0
 30
0
  0
VERTEX
  8
LAYER_1
 10
18.4996
 20
-81.8106
  0
VERTEX
  8
LAYER_1
 10
21.9638
 20
-79.8117
  0
SEQEND
  0
POLYLINE
  8
LAYER_1
 40
0.1764
 41
0.1764
 62
3
 66
1
 10
0
 20
0
 30
0
  0
VERTEX
  8
LAYER_1
 10
18.4996
 20
-83.8095
  0
VERTEX
  8
LAYER_1
 10
23.6917
 20
-80.8111
  0
SEQEND
  0
ENDBLK
  0
BLOCK
  8
LAYER_1
  2
AIGNBL01020012
 70
64
 10
0
 20
0
 30
0
  3
AIGNBL01020012
  0
POLYLINE
  8
LAYER_1
 40
0.1764
 41
0.1764
 62
3
 66
1
 10
0
 20
0
 30
0
  0
VERTEX
  8
LAYER_1
 10
25.9662
 20
-98.3188
  0
VERTEX
  8
LAYER_1
 10
25.9662
 20
-82.3189
  0
VERTEX
  8
LAYER_1
 10
32.4628
 20
-86.0711
  0
SEQEND
  0
POLYLINE
  8
LAYER_1
 40
0.1764
 41
0.1764
 62
3
 66
1
 10
0
 20
0
 30
0
  0
VERTEX
  8
LAYER_1
 10
25.9662
 20
-84.3178
  0
VERTEX
  8
LAYER_1
 10
25.9662
 20
-82.3189
  0
SEQEND
  0
POLYLINE
  8
LAYER_1
 40
0.1764
 41
0.1764
 62
3
 66
1
 10
0
 20
0
 30
0
  0
VERTEX
  8
LAYER_1
 10
25.9662
 20
-86.3167
  0
VERTEX
  8
LAYER_1
 10
25.9662
 20
-84.3178
  0
SEQEND
  0
POLYLINE
  8
LAYER_1
 40
0.1764
 41
0.1764
 62
3
 66
1
 10
0
 20
0
 30
0
  0
VERTEX
  8
LAYER_1
 10
25.9662
 20
-88.3157
  0
VERTEX
  8
LAYER_1
 10
25.9662
 20
-86.3167
  0
SEQEND
  0
POLYLINE
  8
LAYER_1
 40
0.1764
 41
0.1764
 62
3
 66
1
 10
0
 20
0
 30
0
  0
VERTEX
  8
LAYER_1
 10
25.9662
 20
-90.3146
  0
VERTEX
  8
LAYER_1
 10
25.9662
 20
-88.3157
  0
SEQEND
  0
POLYLINE
  8
LAYER_1
 40
0.1764
 41
0.1764
 62
3
 66
1
 10
0
 20
0
 30
0
  0
VERTEX
  8
LAYER_1
 10
25.9662
 20
-92.3135
  0
VERTEX
  8
LAYER_1
 10
25.9662
 20
-90.3146
  0
SEQEND
  0
POLYLINE
  8
LAYER_1
 40
0.1764
 41
0.1764
 62
3
 66
1
 10
0
 20
0
 30
0
  0
VERTEX
  8
LAYER_1
 10
25.9662
 20
-94.3125
  0
VERTEX
  8
LAYER_1
 10
25.9662
 20
-92.3135
  0
SEQEND
  0
POLYLINE
  8
LAYER_1
 40
0.1764
 41
0.1764
 62
3
 66
1
 10
0
 20
0
 30
0
  0
VERTEX
  8
LAYER_1
 10
25.9662
 20
-96.3114
  0
VERTEX
  8
LAYER_1
 10
25.9662
 20
-94.3125
  0
SEQEND
  0
POLYLINE
  8
LAYER_1
 40
0.1764
 41
0.1764
 62
3
 66
1
 10
0
 20
0
 30
0
  0
VERTEX
  8
LAYER_1
 10
25.9662
 20
-84.3178
  0
VERTEX
  8
LAYER_1
 10
32.8355
 20
-88.2818
  0
SEQEND
  0
POLYLINE
  8
LAYER_1
 40
0.1764
 41
0.1764
 62
3
 66
1
 10
0
 20
0
 30
0
  0
VERTEX
  8
LAYER_1
 10
25.9662
 20
-86.3167
  0
VERTEX
  8
LAYER_1
 10
32.6068
 20
-90.1537
  0
SEQEND
  0
POLYLINE
  8
LAYER_1
 40
0.1764
 41
0.1764
 62
3
 66
1
 10
0
 20
0
 30
0
  0
VERTEX
  8
LAYER_1
 10
25.9662
 20
-88.3156
  0
VERTEX
  8
LAYER_1
 10
32.539
 20
-92.1102
  0
SEQEND
  0
POLYLINE
  8
LAYER_1
 40
0.1764
 41
0.1764
 62
3
 66
1
 10
0
 20
0
 30
0
  0
VERTEX
  8
LAYER_1
 10
32.8947
 20
-94.3124
  0
VERTEX
  8
LAYER_1
 10
32.8947
 20
-86.3167
  0
SEQEND
  0
POLYLINE
  8
LAYER_1
 40
0.1764
 41
0.1764
 62
3
 66
1
 10
0
 20
0
 30
0
  0
VERTEX
  8
LAYER_1
 10
32.4628
 20
-86.0711
  0
VERTEX
  8
LAYER_1
 10
32.8947
 20
-86.3167
  0
SEQEND
  0
POLYLINE
  8
LAYER_1
 40
0.1764
 41
0.1764
 62
3
 66
1
 10
0
 20
0
 30
0
  0
VERTEX
  8
LAYER_1
 10
32.6068
 20
-90.1536
  0
VERTEX
  8
LAYER_1
 10
32.8947
 20
-90.3146
  0
SEQEND
  0
POLYLINE
  8
LAYER_1
 40
0.1764
 41
0.1764
 62
3
 66
1
 10
0
 20
0
 30
0
  0
VERTEX
  8
LAYER_1
 10
32.539
 20
-92.1102
  0
VERTEX
  8
LAYER_1
 10
32.8948
 20
-92.3135
  0
SEQEND
  0
POLYLINE
  8
LAYER_1
 40
0.1764
 41
0.1764
 62
3
 66
1
 10
0
 20
0
 30
0
  0
VERTEX
  8
LAYER_1
 10
25.9663
 20
-98.3188
  0
VERTEX
  8
LAYER_1
 10
32.8948
 20
-94.3124
  0
SEQEND
  0
POLYLINE
  8
LAYER_1
 40
0.1764
 41
0.1764
 62
3
 66
1
 10
0
 20
0
 30
0
  0
VERTEX
  8
LAYER_1
 10
25.9663
 20
-90.3146
  0
VERTEX
  8
LAYER_1
 10
32.8948
 20
-94.3124
  0
SEQEND
  0
POLYLINE
  8
LAYER_1
 40
0.1764
 41
0.1764
 62
3
 66
1
 10
0
 20
0
 30
0
  0
VERTEX
  8
LAYER_1
 10
25.9663
 20
-92.3135
  0
VERTEX
  8
LAYER_1
 10
27.6941
 20
-91.314
  0
SEQEND
  0
POLYLINE
  8
LAYER_1
 40
0.1764
 41
0.1764
 62
3
 66
1
 10
0
 20
0
 30
0
  0
VERTEX
  8
LAYER_1
 10
25.9663
 20
-94.3124
  0
VERTEX
  8
LAYER_1
 10
29.4305
 20
-92.3135
  0
SEQEND
  0
POLYLINE
  8
LAYER_1
 40
0.1764
 41
0.1764
 62
3
 66
1
 10
0
 20
0
 30
0
  0
VERTEX
  8
LAYER_1
 10
25.9663
 20
-96.3114
  0
VERTEX
  8
LAYER_1
 10
31.1584
 20
-93.313
  0
SEQEND
  0
ENDBLK
  0
BLOCK
  8
LAYER_1
  2
AIGNBL01020015
 70
64
 10
0
 20
0
 30
0
  3
AIGNBL01020015
  0
POLYLINE
  8
LAYER_1
 40
0.1764
 41
0.1764
 62
3
 66
1
 10
0
 20
0
 30
0
  0
VERTEX
  8
LAYER_1
 10
-11.2908
 20
-110.8126
  0
VERTEX
  8
LAYER_1
 10
-11.2908
 20
-94.8127
  0
VERTEX
  8
LAYER_1
 10
-4.7942
 20
-98.5649
  0
SEQEND
  0
POLYLINE
  8
LAYER_1
 40
0.1764
 41
0.1764
 62
3
 66
1
 10
0
 20
0
 30
0
  0
VERTEX
  8
LAYER_1
 10
-11.2908
 20
-96.8116
  0
VERTEX
  8
LAYER_1
 10
-11.2908
 20
-94.8127
  0
SEQEND
  0
POLYLINE
  8
LAYER_1
 40
0.1764
 41
0.1764
 62
3
 66
1
 10
0
 20
0
 30
0
  0
VERTEX
  8
LAYER_1
 10
-11.2908
 20
-98.8106
  0
VERTEX
  8
LAYER_1
 10
-11.2908
 20
-96.8116
  0
SEQEND
  0
POLYLINE
  8
LAYER_1
 40
0.1764
 41
0.1764
 62
3
 66
1
 10
0
 20
0
 30
0
  0
VERTEX
  8
LAYER_1
 10
-11.2908
 20
-100.8095
  0
VERTEX
  8
LAYER_1
 10
-11.2908
 20
-98.8106
  0
SEQEND
  0
POLYLINE
  8
LAYER_1
 40
0.1764
 41
0.1764
 62
3
 66
1
 10
0
 20
0
 30
0
  0
VERTEX
  8
LAYER_1
 10
-11.2908
 20
-102.8084
  0
VERTEX
  8
LAYER_1
 10
-11.2908
 20
-100.8095
  0
SEQEND
  0
POLYLINE
  8
LAYER_1
 40
0.1764
 41
0.1764
 62
3
 66
1
 10
0
 20
0
 30
0
  0
VERTEX
  8
LAYER_1
 10
-11.2908
 20
-104.8074
  0
VERTEX
  8
LAYER_1
 10
-11.2908
 20
-102.8084
  0
SEQEND
  0
POLYLINE
  8
LAYER_1
 40
0.1764
 41
0.1764
 62
3
 66
1
 10
0
 20
0
 30
0
  0
VERTEX
  8
LAYER_1
 10
-11.2908
 20
-106.8063
  0
VERTEX
  8
LAYER_1
 10
-11.2908
 20
-104.8074
  0
SEQEND
  0
POLYLINE
  8
LAYER_1
 40
0.1764
 41
0.1764
 62
3
 66
1
 10
0
 20
0
 30
0
  0
VERTEX
  8
LAYER_1
 10
-11.2908
 20
-108.8052
  0
VERTEX
  8
LAYER_1
 10
-11.2908
 20
-106.8063
  0
SEQEND
  0
POLYLINE
  8
LAYER_1
 40
0.1764
 41
0.1764
 62
3
 66
1
 10
0
 20
0
 30
0
  0
VERTEX
  8
LAYER_1
 10
-11.2908
 20
-96.8116
  0
VERTEX
  8
LAYER_1
 10
-4.4215
 20
-100.7756
  0
SEQEND
  0
POLYLINE
  8
LAYER_1
 40
0.1764
 41
0.1764
 62
3
 66
1
 10
0
 20
0
 30
0
  0
VERTEX
  8
LAYER_1
 10
-11.2908
 20
-98.8105
  0
VERTEX
  8
LAYER_1
 10
-4.6502
 20
-102.6475
  0
SEQEND
  0
POLYLINE
  8
LAYER_1
 40
0.1764
 41
0.1764
 62
3
 66
1
 10
0
 20
0
 30
0
  0
VERTEX
  8
LAYER_1
 10
-11.2908
 20
-100.8095
  0
VERTEX
  8
LAYER_1
 10
-4.718
 20
-104.6041
  0
SEQEND
  0
POLYLINE
  8
LAYER_1
 40
0.1764
 41
0.1764
 62
3
 66
1
 10
0
 20
0
 30
0
  0
VERTEX
  8
LAYER_1
 10
-4.3623
 20
-106.8063
  0
VERTEX
  8
LAYER_1
 10
-4.3623
 20
-98.8105
  0
SEQEND
  0
POLYLINE
  8
LAYER_1
 40
0.1764
 41
0.1764
 62
3
 66
1
 10
0
 20
0
 30
0
  0
VERTEX
  8
LAYER_1
 10
-4.7942
 20
-98.5649
  0
VERTEX
  8
LAYER_1
 10
-4.3623
 20
-98.8105
  0
SEQEND
  0
POLYLINE
  8
LAYER_1
 40
0.1764
 41
0.1764
 62
3
 66
1
 10
0
 20
0
 30
0
  0
VERTEX
  8
LAYER_1
 10
-4.6502
 20
-102.6475
  0
VERTEX
  8
LAYER_1
 10
-4.3623
 20
-102.8084
  0
SEQEND
  0
POLYLINE
  8
LAYER_1
 40
0.1764
 41
0.1764
 62
3
 66
1
 10
0
 20
0
 30
0
  0
VERTEX
  8
LAYER_1
 10
-4.718
 20
-104.604
  0
VERTEX
  8
LAYER_1
 10
-4.3622
 20
-104.8073
  0
SEQEND
  0
POLYLINE
  8
LAYER_1
 40
0.1764
 41
0.1764
 62
3
 66
1
 10
0
 20
0
 30
0
  0
VERTEX
  8
LAYER_1
 10
-11.2908
 20
-110.8126
  0
VERTEX
  8
LAYER_1
 10
-4.3622
 20
-106.8063
  0
SEQEND
  0
POLYLINE
  8
LAYER_1
 40
0.1764
 41
0.1764
 62
3
 66
1
 10
0
 20
0
 30
0
  0
VERTEX
  8
LAYER_1
 10
-11.2908
 20
-102.8084
  0
VERTEX
  8
LAYER_1
 10
-4.3622
 20
-106.8063
  0
SEQEND
  0
POLYLINE
  8
LAYER_1
 40
0.1764
 41
0.1764
 62
3
 66
1
 10
0
 20
0
 30
0
  0
VERTEX
  8
LAYER_1
 10
-11.2908
 20
-104.8073
  0
VERTEX
  8
LAYER_1
 10
-9.5629
 20
-103.8079
  0
SEQEND
  0
POLYLINE
  8
LAYER_1
 40
0.1764
 41
0.1764
 62
3
 66
1
 10
0
 20
0
 30
0
  0
VERTEX
  8
LAYER_1
 10
-11.2908
 20
-106.8063
  0
VERTEX
  8
LAYER_1
 10
-7.8265
 20
-104.8073
  0
SEQEND
  0
POLYLINE
  8
LAYER_1
 40
0.1764
 41
0.1764
 62
3
 66
1
 10
0
 20
0
 30
0
  0
VERTEX
  8
LAYER_1
 10
-11.2908
 20
-108.8052
  0
VERTEX
  8
LAYER_1
 10
-6.0986
 20
-105.8068
  0
SEQEND
  0
ENDBLK
  0
BLOCK
  8
LAYER_1
  2
AIGNBL01020018
 70
64
 10
0
 20
0
 30
0
  3
AIGNBL01020018
  0
POLYLINE
  8
LAYER_1
 40
0.1764
 41
0.1764
 62
3
 66
1
 10
0
 20
0
 30
0
  0
VERTEX
  8
LAYER_1
 10
-3.8241
 20
-123.3145
  0
VERTEX
  8
LAYER_1
 10
-3.8241
 20
-107.3145
  0
VERTEX
  8
LAYER_1
 10
2.6724
 20
-111.0668
  0
SEQEND
  0
POLYLINE
  8
LAYER_1
 40
0.1764
 41
0.1764
 62
3
 66
1
 10
0
 20
0
 30
0
  0
VERTEX
  8
LAYER_1
 10
-3.8241
 20
-109.3135
  0
VERTEX
  8
LAYER_1
 10
-3.8241
 20
-107.3145
  0
SEQEND
  0
POLYLINE
  8
LAYER_1
 40
0.1764
 41
0.1764
 62
3
 66
1
 10
0
 20
0
 30
0
  0
VERTEX
  8
LAYER_1
 10
-3.8241
 20
-111.3124
  0
VERTEX
  8
LAYER_1
 10
-3.8241
 20
-109.3135
  0
SEQEND
  0
POLYLINE
  8
LAYER_1
 40
0.1764
 41
0.1764
 62
3
 66
1
 10
0
 20
0
 30
0
  0
VERTEX
  8
LAYER_1
 10
-3.8241
 20
-113.3113
  0
VERTEX
  8
LAYER_1
 10
-3.8241
 20
-111.3124
  0
SEQEND
  0
POLYLINE
  8
LAYER_1
 40
0.1764
 41
0.1764
 62
3
 66
1
 10
0
 20
0
 30
0
  0
VERTEX
  8
LAYER_1
 10
-3.8241
 20
-115.3103
  0
VERTEX
  8
LAYER_1
 10
-3.8241
 20
-113.3113
  0
SEQEND
  0
POLYLINE
  8
LAYER_1
 40
0.1764
 41
0.1764
 62
3
 66
1
 10
0
 20
0
 30
0
  0
VERTEX
  8
LAYER_1
 10
-3.8241
 20
-117.3092
  0
VERTEX
  8
LAYER_1
 10
-3.8241
 20
-115.3103
  0
SEQEND
  0
POLYLINE
  8
LAYER_1
 40
0.1764
 41
0.1764
 62
3
 66
1
 10
0
 20
0
 30
0
  0
VERTEX
  8
LAYER_1
 10
-3.8241
 20
-119.3081
  0
VERTEX
  8
LAYER_1
 10
-3.8241
 20
-117.3092
  0
SEQEND
  0
POLYLINE
  8
LAYER_1
 40
0.1764
 41
0.1764
 62
3
 66
1
 10
0
 20
0
 30
0
  0
VERTEX
  8
LAYER_1
 10
-3.8241
 20
-121.3071
  0
VERTEX
  8
LAYER_1
 10
-3.8241
 20
-119.3081
  0
SEQEND
  0
POLYLINE
  8
LAYER_1
 40
0.1764
 41
0.1764
 62
3
 66
1
 10
0
 20
0
 30
0
  0
VERTEX
  8
LAYER_1
 10
-3.8241
 20
-109.3135
  0
VERTEX
  8
LAYER_1
 10
3.0451
 20
-113.2774
  0
SEQEND
  0
POLYLINE
  8
LAYER_1
 40
0.1764
 41
0.1764
 62
3
 66
1
 10
0
 20
0
 30
0
  0
VERTEX
  8
LAYER_1
 10
-3.8241
 20
-111.3124
  0
VERTEX
  8
LAYER_1
 10
2.8164
 20
-115.1493
  0
SEQEND
  0
POLYLINE
  8
LAYER_1
 40
0.1764
 41
0.1764
 62
3
 66
1
 10
0
 20
0
 30
0
  0
VERTEX
  8
LAYER_1
 10
-3.8241
 20
-113.3113
  0
VERTEX
  8
LAYER_1
 10
2.7487
 20
-117.1059
  0
SEQEND
  0
POLYLINE
  8
LAYER_1
 40
0.1764
 41
0.1764
 62
3
 66
1
 10
0
 20
0
 30
0
  0
VERTEX
  8
LAYER_1
 10
3.1044
 20
-119.3081
  0
VERTEX
  8
LAYER_1
 10
3.1044
 20
-111.3124
  0
SEQEND
  0
POLYLINE
  8
LAYER_1
 40
0.1764
 41
0.1764
 62
3
 66
1
 10
0
 20
0
 30
0
  0
VERTEX
  8
LAYER_1
 10
2.6724
 20
-111.0667
  0
VERTEX
  8
LAYER_1
 10
3.1044
 20
-111.3124
  0
SEQEND
  0
POLYLINE
  8
LAYER_1
 40
0.1764
 41
0.1764
 62
3
 66
1
 10
0
 20
0
 30
0
  0
VERTEX
  8
LAYER_1
 10
2.8164
 20
-115.1493
  0
VERTEX
  8
LAYER_1
 10
3.1044
 20
-115.3102
  0
SEQEND
  0
POLYLINE
  8
LAYER_1
 40
0.1764
 41
0.1764
 62
3
 66
1
 10
0
 20
0
 30
0
  0
VERTEX
  8
LAYER_1
 10
2.7487
 20
-117.1059
  0
VERTEX
  8
LAYER_1
 10
3.1044
 20
-117.3092
  0
SEQEND
  0
POLYLINE
  8
LAYER_1
 40
0.1764
 41
0.1764
 62
3
 66
1
 10
0
 20
0
 30
0
  0
VERTEX
  8
LAYER_1
 10
-3.8241
 20
-123.3144
  0
VERTEX
  8
LAYER_1
 10
3.1044
 20
-119.3081
  0
SEQEND
  0
POLYLINE
  8
LAYER_1
 40
0.1764
 41
0.1764
 62
3
 66
1
 10
0
 20
0
 30
0
  0
VERTEX
  8
LAYER_1
 10
-3.8241
 20
-115.3102
  0
VERTEX
  8
LAYER_1
 10
3.1044
 20
-119.3081
  0
SEQEND
  0
POLYLINE
  8
LAYER_1
 40
0.1764
 41
0.1764
 62
3
 66
1
 10
0
 20
0
 30
0
  0
VERTEX
  8
LAYER_1
 10
-3.8241
 20
-117.3092
  0
VERTEX
  8
LAYER_1
 10
-2.0962
 20
-116.3097
  0
SEQEND
  0
POLYLINE
  8
LAYER_1
 40
0.1764
 41
0.1764
 62
3
 66
1
 10
0
 20
0
 30
0
  0
VERTEX
  8
LAYER_1
 10
-3.8241
 20
-119.3081
  0
VERTEX
  8
LAYER_1
 10
-0.3598
 20
-117.3092
  0
SEQEND
  0
POLYLINE
  8
LAYER_1
 40
0.1764
 41
0.1764
 62
3
 66
1
 10
0
 20
0
 30
0
  0
VERTEX
  8
LAYER_1
 10
-3.8241
 20
-121.307
  0
VERTEX
  8
LAYER_1
 10
1.3681
 20
-118.3086
  0
SEQEND
  0
ENDBLK
  0
BLOCK
  8
LAYER_1
  2
AIGNBL0102001B
 70
64
 10
0
 20
0
 30
0
  3
AIGNBL0102001B
  0
POLYLINE
  8
LAYER_1
 40
0.1764
 41
0.1764
 62
3
 66
1
 10
0
 20
0
 30
0
  0
VERTEX
  8
LAYER_1
 10
3.6044
 20
-110.8126
  0
VERTEX
  8
LAYER_1
 10
3.6044
 20
-94.8127
  0
VERTEX
  8
LAYER_1
 10
10.1009
 20
-98.5649
  0
SEQEND
  0
POLYLINE
  8
LAYER_1
 40
0.1764
 41
0.1764
 62
3
 66
1
 10
0
 20
0
 30
0
  0
VERTEX
  8
LAYER_1
 10
3.6044
 20
-96.8116
  0
VERTEX
  8
LAYER_1
 10
3.6044
 20
-94.8127
  0
SEQEND
  0
POLYLINE
  8
LAYER_1
 40
0.1764
 41
0.1764
 62
3
 66
1
 10
0
 20
0
 30
0
  0
VERTEX
  8
LAYER_1
 10
3.6044
 20
-98.8106
  0
VERTEX
  8
LAYER_1
 10
3.6044
 20
-96.8116
  0
SEQEND
  0
POLYLINE
  8
LAYER_1
 40
0.1764
 41
0.1764
 62
3
 66
1
 10
0
 20
0
 30
0
  0
VERTEX
  8
LAYER_1
 10
3.6044
 20
-100.8095
  0
VERTEX
  8
LAYER_1
 10
3.6044
 20
-98.8106
  0
SEQEND
  0
POLYLINE
  8
LAYER_1
 40
0.1764
 41
0.1764
 62
3
 66
1
 10
0
 20
0
 30
0
  0
VERTEX
  8
LAYER_1
 10
3.6044
 20
-102.8084
  0
VERTEX
  8
LAYER_1
 10
3.6044
 20
-100.8095
  0
SEQEND
  0
POLYLINE
  8
LAYER_1
 40
0.1764
 41
0.1764
 62
3
 66
1
 10
0
 20
0
 30
0
  0
VERTEX
  8
LAYER_1
 10
3.6044
 20
-104.8074
  0
VERTEX
  8
LAYER_1
 10
3.6044
 20
-102.8084
  0
SEQEND
  0
POLYLINE
  8
LAYER_1
 40
0.1764
 41
0.1764
 62
3
 66
1
 10
0
 20
0
 30
0
  0
VERTEX
  8
LAYER_1
 10
3.6044
 20
-106.8063
  0
VERTEX
  8
LAYER_1
 10
3.6044
 20
-104.8074
  0
SEQEND
  0
POLYLINE
  8
LAYER_1
 40
0.1764
 41
0.1764
 62
3
 66
1
 10
0
 20
0
 30
0
  0
VERTEX
  8
LAYER_1
 10
3.6044
 20
-108.8052
  0
VERTEX
  8
LAYER_1
 10
3.6044
 20
-106.8063
  0
SEQEND
  0
POLYLINE
  8
LAYER_1
 40
0.1764
 41
0.1764
 62
3
 66
1
 10
0
 20
0
 30
0
  0
VERTEX
  8
LAYER_1
 10
3.6044
 20
-96.8116
  0
VERTEX
  8
LAYER_1
 10
10.4736
 20
-100.7756
  0
SEQEND
  0
POLYLINE
  8
LAYER_1
 40
0.1764
 41
0.1764
 62
3
 66
1
 10
0
 20
0
 30
0
  0
VERTEX
  8
LAYER_1
 10
3.6044
 20
-98.8105
  0
VERTEX
  8
LAYER_1
 10
10.2449
 20
-102.6475
  0
SEQEND
  0
POLYLINE
  8
LAYER_1
 40
0.1764
 41
0.1764
 62
3
 66
1
 10
0
 20
0
 30
0
  0
VERTEX
  8
LAYER_1
 10
3.6044
 20
-100.8095
  0
VERTEX
  8
LAYER_1
 10
10.1772
 20
-104.6041
  0
SEQEND
  0
POLYLINE
  8
LAYER_1
 40
0.1764
 41
0.1764
 62
3
 66
1
 10
0
 20
0
 30
0
  0
VERTEX
  8
LAYER_1
 10
10.5329
 20
-106.8063
  0
VERTEX
  8
LAYER_1
 10
10.5329
 20
-98.8105
  0
SEQEND
  0
POLYLINE
  8
LAYER_1
 40
0.1764
 41
0.1764
 62
3
 66
1
 10
0
 20
0
 30
0
  0
VERTEX
  8
LAYER_1
 10
10.1009
 20
-98.5649
  0
VERTEX
  8
LAYER_1
 10
10.5329
 20
-98.8105
  0
SEQEND
  0
POLYLINE
  8
LAYER_1
 40
0.1764
 41
0.1764
 62
3
 66
1
 10
0
 20
0
 30
0
  0
VERTEX
  8
LAYER_1
 10
10.2449
 20
-102.6475
  0
VERTEX
  8
LAYER_1
 10
10.5329
 20
-102.8084
  0
SEQEND
  0
POLYLINE
  8
LAYER_1
 40
0.1764
 41
0.1764
 62
3
 66
1
 10
0
 20
0
 30
0
  0
VERTEX
  8
LAYER_1
 10
10.1772
 20
-104.604
  0
VERTEX
  8
LAYER_1
 10
10.5329
 20
-104.8073
  0
SEQEND
  0
POLYLINE
  8
LAYER_1
 40
0.1764
 41
0.1764
 62
3
 66
1
 10
0
 20
0
 30
0
  0
VERTEX
  8
LAYER_1
 10
3.6044
 20
-110.8126
  0
VERTEX
  8
LAYER_1
 10
10.5329
 20
-106.8063
  0
SEQEND
  0
POLYLINE
  8
LAYER_1
 40
0.1764
 41
0.1764
 62
3
 66
1
 10
0
 20
0
 30
0
  0
VERTEX
  8
LAYER_1
 10
3.6044
 20
-102.8084
  0
VERTEX
  8
LAYER_1
 10
10.5329
 20
-106.8063
  0
SEQEND
  0
POLYLINE
  8
LAYER_1
 40
0.1764
 41
0.1764
 62
3
 66
1
 10
0
 20
0
 30
0
  0
VERTEX
  8
LAYER_1
 10
3.6044
 20
-104.8073
  0
VERTEX
  8
LAYER_1
 10
5.3323
 20
-103.8079
  0
SEQEND
  0
POLYLINE
  8
LAYER_1
 40
0.1764
 41
0.1764
 62
3
 66
1
 10
0
 20
0
 30
0
  0
VERTEX
  8
LAYER_1
 10
3.6044
 20
-106.8063
  0
VERTEX
  8
LAYER_1
 10
7.0687
 20
-104.8073
  0
SEQEND
  0
POLYLINE
  8
LAYER_1
 40
0.1764
 41
0.1764
 62
3
 66
1
 10
0
 20
0
 30
0
  0
VERTEX
  8
LAYER_1
 10
3.6044
 20
-108.8052
  0
VERTEX
  8
LAYER_1
 10
8.7966
 20
-105.8068
  0
SEQEND
  0
ENDBLK
  0
BLOCK
  8
LAYER_1
  2
AIGNBL0102001E
 70
64
 10
0
 20
0
 30
0
  3
AIGNBL0102001E
  0
POLYLINE
  8
LAYER_1
 40
0.1764
 41
0.1764
 62
3
 66
1
 10
0
 20
0
 30
0
  0
VERTEX
  8
LAYER_1
 10
11.0711
 20
-123.3145
  0
VERTEX
  8
LAYER_1
 10
11.0711
 20
-107.3145
  0
VERTEX
  8
LAYER_1
 10
17.5676
 20
-111.0668
  0
SEQEND
  0
POLYLINE
  8
LAYER_1
 40
0.1764
 41
0.1764
 62
3
 66
1
 10
0
 20
0
 30
0
  0
VERTEX
  8
LAYER_1
 10
11.0711
 20
-109.3135
  0
VERTEX
  8
LAYER_1
 10
11.0711
 20
-107.3145
  0
SEQEND
  0
POLYLINE
  8
LAYER_1
 40
0.1764
 41
0.1764
 62
3
 66
1
 10
0
 20
0
 30
0
  0
VERTEX
  8
LAYER_1
 10
11.0711
 20
-111.3124
  0
VERTEX
  8
LAYER_1
 10
11.0711
 20
-109.3135
  0
SEQEND
  0
POLYLINE
  8
LAYER_1
 40
0.1764
 41
0.1764
 62
3
 66
1
 10
0
 20
0
 30
0
  0
VERTEX
  8
LAYER_1
 10
11.0711
 20
-113.3113
  0
VERTEX
  8
LAYER_1
 10
11.0711
 20
-111.3124
  0
SEQEND
  0
POLYLINE
  8
LAYER_1
 40
0.1764
 41
0.1764
 62
3
 66
1
 10
0
 20
0
 30
0
  0
VERTEX
  8
LAYER_1
 10
11.0711
 20
-115.3103
  0
VERTEX
  8
LAYER_1
 10
11.0711
 20
-113.3113
  0
SEQEND
  0
POLYLINE
  8
LAYER_1
 40
0.1764
 41
0.1764
 62
3
 66
1
 10
0
 20
0
 30
0
  0
VERTEX
  8
LAYER_1
 10
11.0711
 20
-117.3092
  0
VERTEX
  8
LAYER_1
 10
11.0711
 20
-115.3103
  0
SEQEND
  0
POLYLINE
  8
LAYER_1
 40
0.1764
 41
0.1764
 62
3
 66
1
 10
0
 20
0
 30
0
  0
VERTEX
  8
LAYER_1
 10
11.0711
 20
-119.3081
  0
VERTEX
  8
LAYER_1
 10
11.0711
 20
-117.3092
  0
SEQEND
  0
POLYLINE
  8
LAYER_1
 40
0.1764
 41
0.1764
 62
3
 66
1
 10
0
 20
0
 30
0
  0
VERTEX
  8
LAYER_1
 10
11.0711
 20
-121.3071
  0
VERTEX
  8
LAYER_1
 10
11.0711
 20
-119.3081
  0
SEQEND
  0
POLYLINE
  8
LAYER_1
 40
0.1764
 41
0.1764
 62
3
 66
1
 10
0
 20
0
 30
0
  0
VERTEX
  8
LAYER_1
 10
11.0711
 20
-109.3135
  0
VERTEX
  8
LAYER_1
 10
17.9403
 20
-113.2774
  0
SEQEND
  0
POLYLINE
  8
LAYER_1
 40
0.1764
 41
0.1764
 62
3
 66
1
 10
0
 20
0
 30
0
  0
VERTEX
  8
LAYER_1
 10
11.0711
 20
-111.3124
  0
VERTEX
  8
LAYER_1
 10
17.7116
 20
-115.1493
  0
SEQEND
  0
POLYLINE
  8
LAYER_1
 40
0.1764
 41
0.1764
 62
3
 66
1
 10
0
 20
0
 30
0
  0
VERTEX
  8
LAYER_1
 10
11.0711
 20
-113.3113
  0
VERTEX
  8
LAYER_1
 10
17.6438
 20
-117.1059
  0
SEQEND
  0
POLYLINE
  8
LAYER_1
 40
0.1764
 41
0.1764
 62
3
 66
1
 10
0
 20
0
 30
0
  0
VERTEX
  8
LAYER_1
 10
17.9996
 20
-119.3081
  0
VERTEX
  8
LAYER_1
 10
17.9996
 20
-111.3124
  0
SEQEND
  0
POLYLINE
  8
LAYER_1
 40
0.1764
 41
0.1764
 62
3
 66
1
 10
0
 20
0
 30
0
  0
VERTEX
  8
LAYER_1
 10
17.5676
 20
-111.0667
  0
VERTEX
  8
LAYER_1
 10
17.9996
 20
-111.3124
  0
SEQEND
  0
POLYLINE
  8
LAYER_1
 40
0.1764
 41
0.1764
 62
3
 66
1
 10
0
 20
0
 30
0
  0
VERTEX
  8
LAYER_1
 10
17.7116
 20
-115.1493
  0
VERTEX
  8
LAYER_1
 10
17.9996
 20
-115.3102
  0
SEQEND
  0
POLYLINE
  8
LAYER_1
 40
0.1764
 41
0.1764
 62
3
 66
1
 10
0
 20
0
 30
0
  0
VERTEX
  8
LAYER_1
 10
17.6438
 20
-117.1059
  0
VERTEX
  8
LAYER_1
 10
17.9996
 20
-117.3092
  0
SEQEND
  0
POLYLINE
  8
LAYER_1
 40
0.1764
 41
0.1764
 62
3
 66
1
 10
0
 20
0
 30
0
  0
VERTEX
  8
LAYER_1
 10
11.0711
 20
-123.3144
  0
VERTEX
  8
LAYER_1
 10
17.9996
 20
-119.3081
  0
SEQEND
  0
POLYLINE
  8
LAYER_1
 40
0.1764
 41
0.1764
 62
3
 66
1
 10
0
 20
0
 30
0
  0
VERTEX
  8
LAYER_1
 10
11.0711
 20
-115.3102
  0
VERTEX
  8
LAYER_1
 10
17.9996
 20
-119.3081
  0
SEQEND
  0
POLYLINE
  8
LAYER_1
 40
0.1764
 41
0.1764
 62
3
 66
1
 10
0
 20
0
 30
0
  0
VERTEX
  8
LAYER_1
 10
11.0711
 20
-117.3092
  0
VERTEX
  8
LAYER_1
 10
12.799
 20
-116.3097
  0
SEQEND
  0
POLYLINE
  8
LAYER_1
 40
0.1764
 41
0.1764
 62
3
 66
1
 10
0
 20
0
 30
0
  0
VERTEX
  8
LAYER_1
 10
11.0711
 20
-119.3081
  0
VERTEX
  8
LAYER_1
 10
14.5353
 20
-117.3092
  0
SEQEND
  0
POLYLINE
  8
LAYER_1
 40
0.1764
 41
0.1764
 62
3
 66
1
 10
0
 20
0
 30
0
  0
VERTEX
  8
LAYER_1
 10
11.0711
 20
-121.307
  0
VERTEX
  8
LAYER_1
 10
16.2632
 20
-118.3086
  0
SEQEND
  0
ENDBLK
  0
BLOCK
  8
LAYER_1
  2
AIGNBL01020021
 70
64
 10
0
 20
0
 30
0
  3
AIGNBL01020021
  0
POLYLINE
  8
LAYER_1
 40
0.1764
 41
0.1764
 62
3
 66
1
 10
0
 20
0
 30
0
  0
VERTEX
  8
LAYER_1
 10
18.4996
 20
-110.8126
  0
VERTEX
  8
LAYER_1
 10
18.4996
 20
-94.8127
  0
VERTEX
  8
LAYER_1
 10
24.9961
 20
-98.5649
  0
SEQEND
  0
POLYLINE
  8
LAYER_1
 40
0.1764
 41
0.1764
 62
3
 66
1
 10
0
 20
0
 30
0
  0
VERTEX
  8
LAYER_1
 10
18.4996
 20
-96.8116
  0
VERTEX
  8
LAYER_1
 10
18.4996
 20
-94.8127
  0
SEQEND
  0
POLYLINE
  8
LAYER_1
 40
0.1764
 41
0.1764
 62
3
 66
1
 10
0
 20
0
 30
0
  0
VERTEX
  8
LAYER_1
 10
18.4996
 20
-98.8106
  0
VERTEX
  8
LAYER_1
 10
18.4996
 20
-96.8116
  0
SEQEND
  0
POLYLINE
  8
LAYER_1
 40
0.1764
 41
0.1764
 62
3
 66
1
 10
0
 20
0
 30
0
  0
VERTEX
  8
LAYER_1
 10
18.4996
 20
-100.8095
  0
VERTEX
  8
LAYER_1
 10
18.4996
 20
-98.8106
  0
SEQEND
  0
POLYLINE
  8
LAYER_1
 40
0.1764
 41
0.1764
 62
3
 66
1
 10
0
 20
0
 30
0
  0
VERTEX
  8
LAYER_1
 10
18.4996
 20
-102.8084
  0
VERTEX
  8
LAYER_1
 10
18.4996
 20
-100.8095
  0
SEQEND
  0
POLYLINE
  8
LAYER_1
 40
0.1764
 41
0.1764
 62
3
 66
1
 10
0
 20
0
 30
0
  0
VERTEX
  8
LAYER_1
 10
18.4996
 20
-104.8074
  0
VERTEX
  8
LAYER_1
 10
18.4996
 20
-102.8084
  0
SEQEND
  0
POLYLINE
  8
LAYER_1
 40
0.1764
 41
0.1764
 62
3
 66
1
 10
0
 20
0
 30
0
  0
VERTEX
  8
LAYER_1
 10
18.4996
 20
-106.8063
  0
VERTEX
  8
LAYER_1
 10
18.4996
 20
-104.8074
  0
SEQEND
  0
POLYLINE
  8
LAYER_1
 40
0.1764
 41
0.1764
 62
3
 66
1
 10
0
 20
0
 30
0
  0
VERTEX
  8
LAYER_1
 10
18.4996
 20
-108.8052
  0
VERTEX
  8
LAYER_1
 10
18.4996
 20
-106.8063
  0
SEQEND
  0
POLYLINE
  8
LAYER_1
 40
0.1764
 41
0.1764
 62
3
 66
1
 10
0
 20
0
 30
0
  0
VERTEX
  8
LAYER_1
 10
18.4996
 20
-96.8116
  0
VERTEX
  8
LAYER_1
 10
25.3688
 20
-100.7756
  0
SEQEND
  0
POLYLINE
  8
LAYER_1
 40
0.1764
 41
0.1764
 62
3
 66
1
 10
0
 20
0
 30
0
  0
VERTEX
  8
LAYER_1
 10
18.4996
 20
-98.8105
  0
VERTEX
  8
LAYER_1
 10
25.1401
 20
-102.6475
  0
SEQEND
  0
POLYLINE
  8
LAYER_1
 40
0.1764
 41
0.1764
 62
3
 66
1
 10
0
 20
0
 30
0
  0
VERTEX
  8
LAYER_1
 10
18.4996
 20
-100.8095
  0
VERTEX
  8
LAYER_1
 10
25.0724
 20
-104.6041
  0
SEQEND
  0
POLYLINE
  8
LAYER_1
 40
0.1764
 41
0.1764
 62
3
 66
1
 10
0
 20
0
 30
0
  0
VERTEX
  8
LAYER_1
 10
25.4281
 20
-106.8063
  0
VERTEX
  8
LAYER_1
 10
25.4281
 20
-98.8105
  0
SEQEND
  0
POLYLINE
  8
LAYER_1
 40
0.1764
 41
0.1764
 62
3
 66
1
 10
0
 20
0
 30
0
  0
VERTEX
  8
LAYER_1
 10
24.9961
 20
-98.5649
  0
VERTEX
  8
LAYER_1
 10
25.4281
 20
-98.8105
  0
SEQEND
  0
POLYLINE
  8
LAYER_1
 40
0.1764
 41
0.1764
 62
3
 66
1
 10
0
 20
0
 30
0
  0
VERTEX
  8
LAYER_1
 10
25.1401
 20
-102.6475
  0
VERTEX
  8
LAYER_1
 10
25.4281
 20
-102.8084
  0
SEQEND
  0
POLYLINE
  8
LAYER_1
 40
0.1764
 41
0.1764
 62
3
 66
1
 10
0
 20
0
 30
0
  0
VERTEX
  8
LAYER_1
 10
25.0724
 20
-104.604
  0
VERTEX
  8
LAYER_1
 10
25.4281
 20
-104.8073
  0
SEQEND
  0
POLYLINE
  8
LAYER_1
 40
0.1764
 41
0.1764
 62
3
 66
1
 10
0
 20
0
 30
0
  0
VERTEX
  8
LAYER_1
 10
18.4996
 20
-110.8126
  0
VERTEX
  8
LAYER_1
 10
25.4281
 20
-106.8063
  0
SEQEND
  0
POLYLINE
  8
LAYER_1
 40
0.1764
 41
0.1764
 62
3
 66
1
 10
0
 20
0
 30
0
  0
VERTEX
  8
LAYER_1
 10
18.4996
 20
-102.8084
  0
VERTEX
  8
LAYER_1
 10
25.4281
 20
-106.8063
  0
SEQEND
  0
POLYLINE
  8
LAYER_1
 40
0.1764
 41
0.1764
 62
3
 66
1
 10
0
 20
0
 30
0
  0
VERTEX
  8
LAYER_1
 10
18.4996
 20
-104.8073
  0
VERTEX
  8
LAYER_1
 10
20.2275
 20
-103.8079
  0
SEQEND
  0
POLYLINE
  8
LAYER_1
 40
0.1764
 41
0.1764
 62
3
 66
1
 10
0
 20
0
 30
0
  0
VERTEX
  8
LAYER_1
 10
18.4996
 20
-106.8063
  0
VERTEX
  8
LAYER_1
 10
21.9638
 20
-104.8073
  0
SEQEND
  0
POLYLINE
  8
LAYER_1
 40
0.1764
 41
0.1764
 62
3
 66
1
 10
0
 20
0
 30
0
  0
VERTEX
  8
LAYER_1
 10
18.4996
 20
-108.8052
  0
VERTEX
  8
LAYER_1
 10
23.6917
 20
-105.8068
  0
SEQEND
  0
ENDBLK
  0
BLOCK
  8
LAYER_1
  2
AIGNBL01020024
 70
64
 10
0
 20
0
 30
0
  3
AIGNBL01020024
  0
POLYLINE
  8
LAYER_1
 40
0.1764
 41
0.1764
 62
3
 66
1
 10
0
 20
0
 30
0
  0
VERTEX
  8
LAYER_1
 10
25.9662
 20
-123.3145
  0
VERTEX
  8
LAYER_1
 10
25.9662
 20
-107.3145
  0
VERTEX
  8
LAYER_1
 10
32.4628
 20
-111.0668
  0
SEQEND
  0
POLYLINE
  8
LAYER_1
 40
0.1764
 41
0.1764
 62
3
 66
1
 10
0
 20
0
 30
0
  0
VERTEX
  8
LAYER_1
 10
25.9662
 20
-109.3135
  0
VERTEX
  8
LAYER_1
 10
25.9662
 20
-107.3145
  0
SEQEND
  0
POLYLINE
  8
LAYER_1
 40
0.1764
 41
0.1764
 62
3
 66
1
 10
0
 20
0
 30
0
  0
VERTEX
  8
LAYER_1
 10
25.9662
 20
-111.3124
  0
VERTEX
  8
LAYER_1
 10
25.9662
 20
-109.3135
  0
SEQEND
  0
POLYLINE
  8
LAYER_1
 40
0.1764
 41
0.1764
 62
3
 66
1
 10
0
 20
0
 30
0
  0
VERTEX
  8
LAYER_1
 10
25.9662
 20
-113.3113
  0
VERTEX
  8
LAYER_1
 10
25.9662
 20
-111.3124
  0
SEQEND
  0
POLYLINE
  8
LAYER_1
 40
0.1764
 41
0.1764
 62
3
 66
1
 10
0
 20
0
 30
0
  0
VERTEX
  8
LAYER_1
 10
25.9662
 20
-115.3103
  0
VERTEX
  8
LAYER_1
 10
25.9662
 20
-113.3113
  0
SEQEND
  0
POLYLINE
  8
LAYER_1
 40
0.1764
 41
0.1764
 62
3
 66
1
 10
0
 20
0
 30
0
  0
VERTEX
  8
LAYER_1
 10
25.9662
 20
-117.3092
  0
VERTEX
  8
LAYER_1
 10
25.9662
 20
-115.3103
  0
SEQEND
  0
POLYLINE
  8
LAYER_1
 40
0.1764
 41
0.1764
 62
3
 66
1
 10
0
 20
0
 30
0
  0
VERTEX
  8
LAYER_1
 10
25.9662
 20
-119.3081
  0
VERTEX
  8
LAYER_1
 10
25.9662
 20
-117.3092
  0
SEQEND
  0
POLYLINE
  8
LAYER_1
 40
0.1764
 41
0.1764
 62
3
 66
1
 10
0
 20
0
 30
0
  0
VERTEX
  8
LAYER_1
 10
25.9662
 20
-121.3071
  0
VERTEX
  8
LAYER_1
 10
25.9662
 20
-119.3081
  0
SEQEND
  0
POLYLINE
  8
LAYER_1
 40
0.1764
 41
0.1764
 62
3
 66
1
 10
0
 20
0
 30
0
  0
VERTEX
  8
LAYER_1
 10
25.9662
 20
-109.3135
  0
VERTEX
  8
LAYER_1
 10
32.8355
 20
-113.2774
  0
SEQEND
  0
POLYLINE
  8
LAYER_1
 40
0.1764
 41
0.1764
 62
3
 66
1
 10
0
 20
0
 30
0
  0
VERTEX
  8
LAYER_1
 10
25.9662
 20
-111.3124
  0
VERTEX
  8
LAYER_1
 10
32.6068
 20
-115.1493
  0
SEQEND
  0
POLYLINE
  8
LAYER_1
 40
0.1764
 41
0.1764
 62
3
 66
1
 10
0
 20
0
 30
0
  0
VERTEX
  8
LAYER_1
 10
25.9662
 20
-113.3113
  0
VERTEX
  8
LAYER_1
 10
32.539
 20
-117.1059
  0
SEQEND
  0
POLYLINE
  8
LAYER_1
 40
0.1764
 41
0.1764
 62
3
 66
1
 10
0
 20
0
 30
0
  0
VERTEX
  8
LAYER_1
 10
32.8948
 20
-119.3081
  0
VERTEX
  8
LAYER_1
 10
32.8948
 20
-111.3124
  0
SEQEND
  0
POLYLINE
  8
LAYER_1
 40
0.1764
 41
0.1764
 62
3
 66
1
 10
0
 20
0
 30
0
  0
VERTEX
  8
LAYER_1
 10
32.4628
 20
-111.0667
  0
VERTEX
  8
LAYER_1
 10
32.8948
 20
-111.3124
  0
SEQEND
  0
POLYLINE
  8
LAYER_1
 40
0.1764
 41
0.1764
 62
3
 66
1
 10
0
 20
0
 30
0
  0
VERTEX
  8
LAYER_1
 10
32.6068
 20
-115.1493
  0
VERTEX
  8
LAYER_1
 10
32.8948
 20
-115.3102
  0
SEQEND
  0
POLYLINE
  8
LAYER_1
 40
0.1764
 41
0.1764
 62
3
 66
1
 10
0
 20
0
 30
0
  0
VERTEX
  8
LAYER_1
 10
32.539
 20
-117.1059
  0
VERTEX
  8
LAYER_1
 10
32.8948
 20
-117.3092
  0
SEQEND
  0
POLYLINE
  8
LAYER_1
 40
0.1764
 41
0.1764
 62
3
 66
1
 10
0
 20
0
 30
0
  0
VERTEX
  8
LAYER_1
 10
25.9663
 20
-123.3144
  0
VERTEX
  8
LAYER_1
 10
32.8948
 20
-119.3081
  0
SEQEND
  0
POLYLINE
  8
LAYER_1
 40
0.1764
 41
0.1764
 62
3
 66
1
 10
0
 20
0
 30
0
  0
VERTEX
  8
LAYER_1
 10
25.9663
 20
-115.3102
  0
VERTEX
  8
LAYER_1
 10
32.8948
 20
-119.3081
  0
SEQEND
  0
POLYLINE
  8
LAYER_1
 40
0.1764
 41
0.1764
 62
3
 66
1
 10
0
 20
0
 30
0
  0
VERTEX
  8
LAYER_1
 10
25.9663
 20
-117.3092
  0
VERTEX
  8
LAYER_1
 10
27.6941
 20
-116.3097
  0
SEQEND
  0
POLYLINE
  8
LAYER_1
 40
0.1764
 41
0.1764
 62
3
 66
1
 10
0
 20
0
 30
0
  0
VERTEX
  8
LAYER_1
 10
25.9663
 20
-119.3081
  0
VERTEX
  8
LAYER_1
 10
29.4305
 20
-117.3092
  0
SEQEND
  0
POLYLINE
  8
LAYER_1
 40
0.1764
 41
0.1764
 62
3
 66
1
 10
0
 20
0
 30
0
  0
VERTEX
  8
LAYER_1
 10
25.9663
 20
-121.307
  0
VERTEX
  8
LAYER_1
 10
31.1584
 20
-118.3086
  0
SEQEND
  0
ENDBLK
  0
BLOCK
  8
LAYER_1
  2
AIGNBL01020027
 70
64
 10
0
 20
0
 30
0
  3
AIGNBL01020027
  0
POLYLINE
  8
LAYER_1
 40
0.1764
 41
0.1764
 62
3
 66
1
 10
0
 20
0
 30
0
  0
VERTEX
  8
LAYER_1
 10
-11.2908
 20
-135.8083
  0
VERTEX
  8
LAYER_1
 10
-11.2908
 20
-119.8084
  0
VERTEX
  8
LAYER_1
 10
-4.7942
 20
-123.5606
  0
SEQEND
  0
POLYLINE
  8
LAYER_1
 40
0.1764
 41
0.1764
 62
3
 66
1
 10
0
 20
0
 30
0
  0
VERTEX
  8
LAYER_1
 10
-11.2908
 20
-121.8073
  0
VERTEX
  8
LAYER_1
 10
-11.2908
 20
-119.8084
  0
SEQEND
  0
POLYLINE
  8
LAYER_1
 40
0.1764
 41
0.1764
 62
3
 66
1
 10
0
 20
0
 30
0
  0
VERTEX
  8
LAYER_1
 10
-11.2908
 20
-123.8062
  0
VERTEX
  8
LAYER_1
 10
-11.2908
 20
-121.8073
  0
SEQEND
  0
POLYLINE
  8
LAYER_1
 40
0.1764
 41
0.1764
 62
3
 66
1
 10
0
 20
0
 30
0
  0
VERTEX
  8
LAYER_1
 10
-11.2908
 20
-125.8052
  0
VERTEX
  8
LAYER_1
 10
-11.2908
 20
-123.8062
  0
SEQEND
  0
POLYLINE
  8
LAYER_1
 40
0.1764
 41
0.1764
 62
3
 66
1
 10
0
 20
0
 30
0
  0
VERTEX
  8
LAYER_1
 10
-11.2908
 20
-127.8041
  0
VERTEX
  8
LAYER_1
 10
-11.2908
 20
-125.8052
  0
SEQEND
  0
POLYLINE
  8
LAYER_1
 40
0.1764
 41
0.1764
 62
3
 66
1
 10
0
 20
0
 30
0
  0
VERTEX
  8
LAYER_1
 10
-11.2908
 20
-129.803
  0
VERTEX
  8
LAYER_1
 10
-11.2908
 20
-127.8041
  0
SEQEND
  0
POLYLINE
  8
LAYER_1
 40
0.1764
 41
0.1764
 62
3
 66
1
 10
0
 20
0
 30
0
  0
VERTEX
  8
LAYER_1
 10
-11.2908
 20
-131.802
  0
VERTEX
  8
LAYER_1
 10
-11.2908
 20
-129.803
  0
SEQEND
  0
POLYLINE
  8
LAYER_1
 40
0.1764
 41
0.1764
 62
3
 66
1
 10
0
 20
0
 30
0
  0
VERTEX
  8
LAYER_1
 10
-11.2908
 20
-133.8009
  0
VERTEX
  8
LAYER_1
 10
-11.2908
 20
-131.802
  0
SEQEND
  0
POLYLINE
  8
LAYER_1
 40
0.1764
 41
0.1764
 62
3
 66
1
 10
0
 20
0
 30
0
  0
VERTEX
  8
LAYER_1
 10
-11.2908
 20
-121.8073
  0
VERTEX
  8
LAYER_1
 10
-4.4215
 20
-125.7713
  0
SEQEND
  0
POLYLINE
  8
LAYER_1
 40
0.1764
 41
0.1764
 62
3
 66
1
 10
0
 20
0
 30
0
  0
VERTEX
  8
LAYER_1
 10
-11.2908
 20
-123.8062
  0
VERTEX
  8
LAYER_1
 10
-4.6502
 20
-127.6431
  0
SEQEND
  0
POLYLINE
  8
LAYER_1
 40
0.1764
 41
0.1764
 62
3
 66
1
 10
0
 20
0
 30
0
  0
VERTEX
  8
LAYER_1
 10
-11.2908
 20
-125.8051
  0
VERTEX
  8
LAYER_1
 10
-4.718
 20
-129.5997
  0
SEQEND
  0
POLYLINE
  8
LAYER_1
 40
0.1764
 41
0.1764
 62
3
 66
1
 10
0
 20
0
 30
0
  0
VERTEX
  8
LAYER_1
 10
-4.3623
 20
-131.8019
  0
VERTEX
  8
LAYER_1
 10
-4.3623
 20
-123.8062
  0
SEQEND
  0
POLYLINE
  8
LAYER_1
 40
0.1764
 41
0.1764
 62
3
 66
1
 10
0
 20
0
 30
0
  0
VERTEX
  8
LAYER_1
 10
-4.7942
 20
-123.5606
  0
VERTEX
  8
LAYER_1
 10
-4.3623
 20
-123.8062
  0
SEQEND
  0
POLYLINE
  8
LAYER_1
 40
0.1764
 41
0.1764
 62
3
 66
1
 10
0
 20
0
 30
0
  0
VERTEX
  8
LAYER_1
 10
-4.6502
 20
-127.6431
  0
VERTEX
  8
LAYER_1
 10
-4.3623
 20
-127.8041
  0
SEQEND
  0
POLYLINE
  8
LAYER_1
 40
0.1764
 41
0.1764
 62
3
 66
1
 10
0
 20
0
 30
0
  0
VERTEX
  8
LAYER_1
 10
-4.718
 20
-129.5997
  0
VERTEX
  8
LAYER_1
 10
-4.3622
 20
-129.803
  0
SEQEND
  0
POLYLINE
  8
LAYER_1
 40
0.1764
 41
0.1764
 62
3
 66
1
 10
0
 20
0
 30
0
  0
VERTEX
  8
LAYER_1
 10
-11.2908
 20
-135.8083
  0
VERTEX
  8
LAYER_1
 10
-4.3622
 20
-131.8019
  0
SEQEND
  0
POLYLINE
  8
LAYER_1
 40
0.1764
 41
0.1764
 62
3
 66
1
 10
0
 20
0
 30
0
  0
VERTEX
  8
LAYER_1
 10
-11.2908
 20
-127.8041
  0
VERTEX
  8
LAYER_1
 10
-4.3622
 20
-131.8019
  0
SEQEND
  0
POLYLINE
  8
LAYER_1
 40
0.1764
 41
0.1764
 62
3
 66
1
 10
0
 20
0
 30
0
  0
VERTEX
  8
LAYER_1
 10
-11.2908
 20
-129.803
  0
VERTEX
  8
LAYER_1
 10
-9.5629
 20
-128.8035
  0
SEQEND
  0
POLYLINE
  8
LAYER_1
 40
0.1764
 41
0.1764
 62
3
 66
1
 10
0
 20
0
 30
0
  0
VERTEX
  8
LAYER_1
 10
-11.2908
 20
-131.8019
  0
VERTEX
  8
LAYER_1
 10
-7.8265
 20
-129.803
  0
SEQEND
  0
POLYLINE
  8
LAYER_1
 40
0.1764
 41
0.1764
 62
3
 66
1
 10
0
 20
0
 30
0
  0
VERTEX
  8
LAYER_1
 10
-11.2908
 20
-133.8008
  0
VERTEX
  8
LAYER_1
 10
-6.0986
 20
-130.8024
  0
SEQEND
  0
ENDBLK
  0
BLOCK
  8
LAYER_1
  2
AIGNBL0102002A
 70
64
 10
0
 20
0
 30
0
  3
AIGNBL0102002A
  0
POLYLINE
  8
LAYER_1
 40
0.1764
 41
0.1764
 62
3
 66
1
 10
0
 20
0
 30
0
  0
VERTEX
  8
LAYER_1
 10
-3.8241
 20
-148.3101
  0
VERTEX
  8
LAYER_1
 10
-3.8241
 20
-132.3102
  0
VERTEX
  8
LAYER_1
 10
2.6724
 20
-136.0624
  0
SEQEND
  0
POLYLINE
  8
LAYER_1
 40
0.1764
 41
0.1764
 62
3
 66
1
 10
0
 20
0
 30
0
  0
VERTEX
  8
LAYER_1
 10
-3.8241
 20
-134.3091
  0
VERTEX
  8
LAYER_1
 10
-3.8241
 20
-132.3102
  0
SEQEND
  0
POLYLINE
  8
LAYER_1
 40
0.1764
 41
0.1764
 62
3
 66
1
 10
0
 20
0
 30
0
  0
VERTEX
  8
LAYER_1
 10
-3.8241
 20
-136.3081
  0
VERTEX
  8
LAYER_1
 10
-3.8241
 20
-134.3091
  0
SEQEND
  0
POLYLINE
  8
LAYER_1
 40
0.1764
 41
0.1764
 62
3
 66
1
 10
0
 20
0
 30
0
  0
VERTEX
  8
LAYER_1
 10
-3.8241
 20
-138.307
  0
VERTEX
  8
LAYER_1
 10
-3.8241
 20
-136.3081
  0
SEQEND
  0
POLYLINE
  8
LAYER_1
 40
0.1764
 41
0.1764
 62
3
 66
1
 10
0
 20
0
 30
0
  0
VERTEX
  8
LAYER_1
 10
-3.8241
 20
-140.3059
  0
VERTEX
  8
LAYER_1
 10
-3.8241
 20
-138.307
  0
SEQEND
  0
POLYLINE
  8
LAYER_1
 40
0.1764
 41
0.1764
 62
3
 66
1
 10
0
 20
0
 30
0
  0
VERTEX
  8
LAYER_1
 10
-3.8241
 20
-142.3049
  0
VERTEX
  8
LAYER_1
 10
-3.8241
 20
-140.3059
  0
SEQEND
  0
POLYLINE
  8
LAYER_1
 40
0.1764
 41
0.1764
 62
3
 66
1
 10
0
 20
0
 30
0
  0
VERTEX
  8
LAYER_1
 10
-3.8241
 20
-144.3038
  0
VERTEX
  8
LAYER_1
 10
-3.8241
 20
-142.3049
  0
SEQEND
  0
POLYLINE
  8
LAYER_1
 40
0.1764
 41
0.1764
 62
3
 66
1
 10
0
 20
0
 30
0
  0
VERTEX
  8
LAYER_1
 10
-3.8241
 20
-146.3027
  0
VERTEX
  8
LAYER_1
 10
-3.8241
 20
-144.3038
  0
SEQEND
  0
POLYLINE
  8
LAYER_1
 40
0.1764
 41
0.1764
 62
3
 66
1
 10
0
 20
0
 30
0
  0
VERTEX
  8
LAYER_1
 10
-3.8241
 20
-134.3091
  0
VERTEX
  8
LAYER_1
 10
3.0451
 20
-138.2731
  0
SEQEND
  0
POLYLINE
  8
LAYER_1
 40
0.1764
 41
0.1764
 62
3
 66
1
 10
0
 20
0
 30
0
  0
VERTEX
  8
LAYER_1
 10
-3.8241
 20
-136.308
  0
VERTEX
  8
LAYER_1
 10
2.8164
 20
-140.145
  0
SEQEND
  0
POLYLINE
  8
LAYER_1
 40
0.1764
 41
0.1764
 62
3
 66
1
 10
0
 20
0
 30
0
  0
VERTEX
  8
LAYER_1
 10
-3.8241
 20
-138.307
  0
VERTEX
  8
LAYER_1
 10
2.7487
 20
-142.1016
  0
SEQEND
  0
POLYLINE
  8
LAYER_1
 40
0.1764
 41
0.1764
 62
3
 66
1
 10
0
 20
0
 30
0
  0
VERTEX
  8
LAYER_1
 10
3.1044
 20
-144.3038
  0
VERTEX
  8
LAYER_1
 10
3.1044
 20
-136.308
  0
SEQEND
  0
POLYLINE
  8
LAYER_1
 40
0.1764
 41
0.1764
 62
3
 66
1
 10
0
 20
0
 30
0
  0
VERTEX
  8
LAYER_1
 10
2.6724
 20
-136.0624
  0
VERTEX
  8
LAYER_1
 10
3.1044
 20
-136.308
  0
SEQEND
  0
POLYLINE
  8
LAYER_1
 40
0.1764
 41
0.1764
 62
3
 66
1
 10
0
 20
0
 30
0
  0
VERTEX
  8
LAYER_1
 10
2.8164
 20
-140.145
  0
VERTEX
  8
LAYER_1
 10
3.1044
 20
-140.3059
  0
SEQEND
  0
POLYLINE
  8
LAYER_1
 40
0.1764
 41
0.1764
 62
3
 66
1
 10
0
 20
0
 30
0
  0
VERTEX
  8
LAYER_1
 10
2.7487
 20
-142.1016
  0
VERTEX
  8
LAYER_1
 10
3.1044
 20
-142.3048
  0
SEQEND
  0
POLYLINE
  8
LAYER_1
 40
0.1764
 41
0.1764
 62
3
 66
1
 10
0
 20
0
 30
0
  0
VERTEX
  8
LAYER_1
 10
-3.8241
 20
-148.3101
  0
VERTEX
  8
LAYER_1
 10
3.1044
 20
-144.3038
  0
SEQEND
  0
POLYLINE
  8
LAYER_1
 40
0.1764
 41
0.1764
 62
3
 66
1
 10
0
 20
0
 30
0
  0
VERTEX
  8
LAYER_1
 10
-3.8241
 20
-140.3059
  0
VERTEX
  8
LAYER_1
 10
3.1044
 20
-144.3038
  0
SEQEND
  0
POLYLINE
  8
LAYER_1
 40
0.1764
 41
0.1764
 62
3
 66
1
 10
0
 20
0
 30
0
  0
VERTEX
  8
LAYER_1
 10
-3.8241
 20
-142.3048
  0
VERTEX
  8
LAYER_1
 10
-2.0962
 20
-141.3054
  0
SEQEND
  0
POLYLINE
  8
LAYER_1
 40
0.1764
 41
0.1764
 62
3
 66
1
 10
0
 20
0
 30
0
  0
VERTEX
  8
LAYER_1
 10
-3.8241
 20
-144.3038
  0
VERTEX
  8
LAYER_1
 10
-0.3598
 20
-142.3048
  0
SEQEND
  0
POLYLINE
  8
LAYER_1
 40
0.1764
 41
0.1764
 62
3
 66
1
 10
0
 20
0
 30
0
  0
VERTEX
  8
LAYER_1
 10
-3.8241
 20
-146.3027
  0
VERTEX
  8
LAYER_1
 10
1.3681
 20
-143.3043
  0
SEQEND
  0
ENDBLK
  0
BLOCK
  8
LAYER_1
  2
AIGNBL0102002D
 70
64
 10
0
 20
0
 30
0
  3
AIGNBL0102002D
  0
POLYLINE
  8
LAYER_1
 40
0.1764
 41
0.1764
 62
3
 66
1
 10
0
 20
0
 30
0
  0
VERTEX
  8
LAYER_1
 10
3.6044
 20
-135.8083
  0
VERTEX
  8
LAYER_1
 10
3.6044
 20
-119.8084
  0
VERTEX
  8
LAYER_1
 10
10.1009
 20
-123.5606
  0
SEQEND
  0
POLYLINE
  8
LAYER_1
 40
0.1764
 41
0.1764
 62
3
 66
1
 10
0
 20
0
 30
0
  0
VERTEX
  8
LAYER_1
 10
3.6044
 20
-121.8073
  0
VERTEX
  8
LAYER_1
 10
3.6044
 20
-119.8084
  0
SEQEND
  0
POLYLINE
  8
LAYER_1
 40
0.1764
 41
0.1764
 62
3
 66
1
 10
0
 20
0
 30
0
  0
VERTEX
  8
LAYER_1
 10
3.6044
 20
-123.8062
  0
VERTEX
  8
LAYER_1
 10
3.6044
 20
-121.8073
  0
SEQEND
  0
POLYLINE
  8
LAYER_1
 40
0.1764
 41
0.1764
 62
3
 66
1
 10
0
 20
0
 30
0
  0
VERTEX
  8
LAYER_1
 10
3.6044
 20
-125.8052
  0
VERTEX
  8
LAYER_1
 10
3.6044
 20
-123.8062
  0
SEQEND
  0
POLYLINE
  8
LAYER_1
 40
0.1764
 41
0.1764
 62
3
 66
1
 10
0
 20
0
 30
0
  0
VERTEX
  8
LAYER_1
 10
3.6044
 20
-127.8041
  0
VERTEX
  8
LAYER_1
 10
3.6044
 20
-125.8052
  0
SEQEND
  0
POLYLINE
  8
LAYER_1
 40
0.1764
 41
0.1764
 62
3
 66
1
 10
0
 20
0
 30
0
  0
VERTEX
  8
LAYER_1
 10
3.6044
 20
-129.803
  0
VERTEX
  8
LAYER_1
 10
3.6044
 20
-127.8041
  0
SEQEND
  0
POLYLINE
  8
LAYER_1
 40
0.1764
 41
0.1764
 62
3
 66
1
 10
0
 20
0
 30
0
  0
VERTEX
  8
LAYER_1
 10
3.6044
 20
-131.802
  0
VERTEX
  8
LAYER_1
 10
3.6044
 20
-129.803
  0
SEQEND
  0
POLYLINE
  8
LAYER_1
 40
0.1764
 41
0.1764
 62
3
 66
1
 10
0
 20
0
 30
0
  0
VERTEX
  8
LAYER_1
 10
3.6044
 20
-133.8009
  0
VERTEX
  8
LAYER_1
 10
3.6044
 20
-131.802
  0
SEQEND
  0
POLYLINE
  8
LAYER_1
 40
0.1764
 41
0.1764
 62
3
 66
1
 10
0
 20
0
 30
0
  0
VERTEX
  8
LAYER_1
 10
3.6044
 20
-121.8073
  0
VERTEX
  8
LAYER_1
 10
10.4736
 20
-125.7713
  0
SEQEND
  0
POLYLINE
  8
LAYER_1
 40
0.1764
 41
0.1764
 62
3
 66
1
 10
0
 20
0
 30
0
  0
VERTEX
  8
LAYER_1
 10
3.6044
 20
-123.8062
  0
VERTEX
  8
LAYER_1
 10
10.2449
 20
-127.6431
  0
SEQEND
  0
POLYLINE
  8
LAYER_1
 40
0.1764
 41
0.1764
 62
3
 66
1
 10
0
 20
0
 30
0
  0
VERTEX
  8
LAYER_1
 10
3.6044
 20
-125.8051
  0
VERTEX
  8
LAYER_1
 10
10.1772
 20
-129.5997
  0
SEQEND
  0
POLYLINE
  8
LAYER_1
 40
0.1764
 41
0.1764
 62
3
 66
1
 10
0
 20
0
 30
0
  0
VERTEX
  8
LAYER_1
 10
10.5329
 20
-131.8019
  0
VERTEX
  8
LAYER_1
 10
10.5329
 20
-123.8062
  0
SEQEND
  0
POLYLINE
  8
LAYER_1
 40
0.1764
 41
0.1764
 62
3
 66
1
 10
0
 20
0
 30
0
  0
VERTEX
  8
LAYER_1
 10
10.1009
 20
-123.5606
  0
VERTEX
  8
LAYER_1
 10
10.5329
 20
-123.8062
  0
SEQEND
  0
POLYLINE
  8
LAYER_1
 40
0.1764
 41
0.1764
 62
3
 66
1
 10
0
 20
0
 30
0
  0
VERTEX
  8
LAYER_1
 10
10.2449
 20
-127.6431
  0
VERTEX
  8
LAYER_1
 10
10.5329
 20
-127.8041
  0
SEQEND
  0
POLYLINE
  8
LAYER_1
 40
0.1764
 41
0.1764
 62
3
 66
1
 10
0
 20
0
 30
0
  0
VERTEX
  8
LAYER_1
 10
10.1772
 20
-129.5997
  0
VERTEX
  8
LAYER_1
 10
10.5329
 20
-129.803
  0
SEQEND
  0
POLYLINE
  8
LAYER_1
 40
0.1764
 41
0.1764
 62
3
 66
1
 10
0
 20
0
 30
0
  0
VERTEX
  8
LAYER_1
 10
3.6044
 20
-135.8083
  0
VERTEX
  8
LAYER_1
 10
10.5329
 20
-131.8019
  0
SEQEND
  0
POLYLINE
  8
LAYER_1
 40
0.1764
 41
0.1764
 62
3
 66
1
 10
0
 20
0
 30
0
  0
VERTEX
  8
LAYER_1
 10
3.6044
 20
-127.8041
  0
VERTEX
  8
LAYER_1
 10
10.5329
 20
-131.8019
  0
SEQEND
  0
POLYLINE
  8
LAYER_1
 40
0.1764
 41
0.1764
 62
3
 66
1
 10
0
 20
0
 30
0
  0
VERTEX
  8
LAYER_1
 10
3.6044
 20
-129.803
  0
VERTEX
  8
LAYER_1
 10
5.3323
 20
-128.8035
  0
SEQEND
  0
POLYLINE
  8
LAYER_1
 40
0.1764
 41
0.1764
 62
3
 66
1
 10
0
 20
0
 30
0
  0
VERTEX
  8
LAYER_1
 10
3.6044
 20
-131.8019
  0
VERTEX
  8
LAYER_1
 10
7.0687
 20
-129.803
  0
SEQEND
  0
POLYLINE
  8
LAYER_1
 40
0.1764
 41
0.1764
 62
3
 66
1
 10
0
 20
0
 30
0
  0
VERTEX
  8
LAYER_1
 10
3.6044
 20
-133.8008
  0
VERTEX
  8
LAYER_1
 10
8.7966
 20
-130.8024
  0
SEQEND
  0
ENDBLK
  0
BLOCK
  8
LAYER_1
  2
AIGNBL01020030
 70
64
 10
0
 20
0
 30
0
  3
AIGNBL01020030
  0
POLYLINE
  8
LAYER_1
 40
0.1764
 41
0.1764
 62
3
 66
1
 10
0
 20
0
 30
0
  0
VERTEX
  8
LAYER_1
 10
11.0711
 20
-148.3101
  0
VERTEX
  8
LAYER_1
 10
11.0711
 20
-132.3102
  0
VERTEX
  8
LAYER_1
 10
17.5676
 20
-136.0624
  0
SEQEND
  0
POLYLINE
  8
LAYER_1
 40
0.1764
 41
0.1764
 62
3
 66
1
 10
0
 20
0
 30
0
  0
VERTEX
  8
LAYER_1
 10
11.0711
 20
-134.3091
  0
VERTEX
  8
LAYER_1
 10
11.0711
 20
-132.3102
  0
SEQEND
  0
POLYLINE
  8
LAYER_1
 40
0.1764
 41
0.1764
 62
3
 66
1
 10
0
 20
0
 30
0
  0
VERTEX
  8
LAYER_1
 10
11.0711
 20
-136.3081
  0
VERTEX
  8
LAYER_1
 10
11.0711
 20
-134.3091
  0
SEQEND
  0
POLYLINE
  8
LAYER_1
 40
0.1764
 41
0.1764
 62
3
 66
1
 10
0
 20
0
 30
0
  0
VERTEX
  8
LAYER_1
 10
11.0711
 20
-138.307
  0
VERTEX
  8
LAYER_1
 10
11.0711
 20
-136.3081
  0
SEQEND
  0
POLYLINE
  8
LAYER_1
 40
0.1764
 41
0.1764
 62
3
 66
1
 10
0
 20
0
 30
0
  0
VERTEX
  8
LAYER_1
 10
11.0711
 20
-140.3059
  0
VERTEX
  8
LAYER_1
 10
11.0711
 20
-138.307
  0
SEQEND
  0
POLYLINE
  8
LAYER_1
 40
0.1764
 41
0.1764
 62
3
 66
1
 10
0
 20
0
 30
0
  0
VERTEX
  8
LAYER_1
 10
11.0711
 20
-142.3049
  0
VERTEX
  8
LAYER_1
 10
11.0711
 20
-140.3059
  0
SEQEND
  0
POLYLINE
  8
LAYER_1
 40
0.1764
 41
0.1764
 62
3
 66
1
 10
0
 20
0
 30
0
  0
VERTEX
  8
LAYER_1
 10
11.0711
 20
-144.3038
  0
VERTEX
  8
LAYER_1
 10
11.0711
 20
-142.3049
  0
SEQEND
  0
POLYLINE
  8
LAYER_1
 40
0.1764
 41
0.1764
 62
3
 66
1
 10
0
 20
0
 30
0
  0
VERTEX
  8
LAYER_1
 10
11.0711
 20
-146.3027
  0
VERTEX
  8
LAYER_1
 10
11.0711
 20
-144.3038
  0
SEQEND
  0
POLYLINE
  8
LAYER_1
 40
0.1764
 41
0.1764
 62
3
 66
1
 10
0
 20
0
 30
0
  0
VERTEX
  8
LAYER_1
 10
11.0711
 20
-134.3091
  0
VERTEX
  8
LAYER_1
 10
17.9403
 20
-138.2731
  0
SEQEND
  0
POLYLINE
  8
LAYER_1
 40
0.1764
 41
0.1764
 62
3
 66
1
 10
0
 20
0
 30
0
  0
VERTEX
  8
LAYER_1
 10
11.0711
 20
-136.308
  0
VERTEX
  8
LAYER_1
 10
17.7116
 20
-140.145
  0
SEQEND
  0
POLYLINE
  8
LAYER_1
 40
0.1764
 41
0.1764
 62
3
 66
1
 10
0
 20
0
 30
0
  0
VERTEX
  8
LAYER_1
 10
11.0711
 20
-138.307
  0
VERTEX
  8
LAYER_1
 10
17.6438
 20
-142.1016
  0
SEQEND
  0
POLYLINE
  8
LAYER_1
 40
0.1764
 41
0.1764
 62
3
 66
1
 10
0
 20
0
 30
0
  0
VERTEX
  8
LAYER_1
 10
17.9996
 20
-144.3038
  0
VERTEX
  8
LAYER_1
 10
17.9996
 20
-136.308
  0
SEQEND
  0
POLYLINE
  8
LAYER_1
 40
0.1764
 41
0.1764
 62
3
 66
1
 10
0
 20
0
 30
0
  0
VERTEX
  8
LAYER_1
 10
17.5676
 20
-136.0624
  0
VERTEX
  8
LAYER_1
 10
17.9996
 20
-136.308
  0
SEQEND
  0
POLYLINE
  8
LAYER_1
 40
0.1764
 41
0.1764
 62
3
 66
1
 10
0
 20
0
 30
0
  0
VERTEX
  8
LAYER_1
 10
17.7116
 20
-140.145
  0
VERTEX
  8
LAYER_1
 10
17.9996
 20
-140.3059
  0
SEQEND
  0
POLYLINE
  8
LAYER_1
 40
0.1764
 41
0.1764
 62
3
 66
1
 10
0
 20
0
 30
0
  0
VERTEX
  8
LAYER_1
 10
17.6438
 20
-142.1016
  0
VERTEX
  8
LAYER_1
 10
17.9996
 20
-142.3048
  0
SEQEND
  0
POLYLINE
  8
LAYER_1
 40
0.1764
 41
0.1764
 62
3
 66
1
 10
0
 20
0
 30
0
  0
VERTEX
  8
LAYER_1
 10
11.0711
 20
-148.3101
  0
VERTEX
  8
LAYER_1
 10
17.9996
 20
-144.3038
  0
SEQEND
  0
POLYLINE
  8
LAYER_1
 40
0.1764
 41
0.1764
 62
3
 66
1
 10
0
 20
0
 30
0
  0
VERTEX
  8
LAYER_1
 10
11.0711
 20
-140.3059
  0
VERTEX
  8
LAYER_1
 10
17.9996
 20
-144.3038
  0
SEQEND
  0
POLYLINE
  8
LAYER_1
 40
0.1764
 41
0.1764
 62
3
 66
1
 10
0
 20
0
 30
0
  0
VERTEX
  8
LAYER_1
 10
11.0711
 20
-142.3048
  0
VERTEX
  8
LAYER_1
 10
12.799
 20
-141.3054
  0
SEQEND
  0
POLYLINE
  8
LAYER_1
 40
0.1764
 41
0.1764
 62
3
 66
1
 10
0
 20
0
 30
0
  0
VERTEX
  8
LAYER_1
 10
11.0711
 20
-144.3038
  0
VERTEX
  8
LAYER_1
 10
14.5353
 20
-142.3048
  0
SEQEND
  0
POLYLINE
  8
LAYER_1
 40
0.1764
 41
0.1764
 62
3
 66
1
 10
0
 20
0
 30
0
  0
VERTEX
  8
LAYER_1
 10
11.0711
 20
-146.3027
  0
VERTEX
  8
LAYER_1
 10
16.2632
 20
-143.3043
  0
SEQEND
  0
ENDBLK
  0
BLOCK
  8
LAYER_1
  2
AIGNBL01020033
 70
64
 10
0
 20
0
 30
0
  3
AIGNBL01020033
  0
POLYLINE
  8
LAYER_1
 40
0.1764
 41
0.1764
 62
3
 66
1
 10
0
 20
0
 30
0
  0
VERTEX
  8
LAYER_1
 10
18.4996
 20
-135.8083
  0
VERTEX
  8
LAYER_1
 10
18.4996
 20
-119.8084
  0
VERTEX
  8
LAYER_1
 10
24.9961
 20
-123.5606
  0
SEQEND
  0
POLYLINE
  8
LAYER_1
 40
0.1764
 41
0.1764
 62
3
 66
1
 10
0
 20
0
 30
0
  0
VERTEX
  8
LAYER_1
 10
18.4996
 20
-121.8073
  0
VERTEX
  8
LAYER_1
 10
18.4996
 20
-119.8084
  0
SEQEND
  0
POLYLINE
  8
LAYER_1
 40
0.1764
 41
0.1764
 62
3
 66
1
 10
0
 20
0
 30
0
  0
VERTEX
  8
LAYER_1
 10
18.4996
 20
-123.8062
  0
VERTEX
  8
LAYER_1
 10
18.4996
 20
-121.8073
  0
SEQEND
  0
POLYLINE
  8
LAYER_1
 40
0.1764
 41
0.1764
 62
3
 66
1
 10
0
 20
0
 30
0
  0
VERTEX
  8
LAYER_1
 10
18.4996
 20
-125.8052
  0
VERTEX
  8
LAYER_1
 10
18.4996
 20
-123.8062
  0
SEQEND
  0
POLYLINE
  8
LAYER_1
 40
0.1764
 41
0.1764
 62
3
 66
1
 10
0
 20
0
 30
0
  0
VERTEX
  8
LAYER_1
 10
18.4996
 20
-127.8041
  0
VERTEX
  8
LAYER_1
 10
18.4996
 20
-125.8052
  0
SEQEND
  0
POLYLINE
  8
LAYER_1
 40
0.1764
 41
0.1764
 62
3
 66
1
 10
0
 20
0
 30
0
  0
VERTEX
  8
LAYER_1
 10
18.4996
 20
-129.803
  0
VERTEX
  8
LAYER_1
 10
18.4996
 20
-127.8041
  0
SEQEND
  0
POLYLINE
  8
LAYER_1
 40
0.1764
 41
0.1764
 62
3
 66
1
 10
0
 20
0
 30
0
  0
VERTEX
  8
LAYER_1
 10
18.4996
 20
-131.802
  0
VERTEX
  8
LAYER_1
 10
18.4996
 20
-129.803
  0
SEQEND
  0
POLYLINE
  8
LAYER_1
 40
0.1764
 41
0.1764
 62
3
 66
1
 10
0
 20
0
 30
0
  0
VERTEX
  8
LAYER_1
 10
18.4996
 20
-133.8009
  0
VERTEX
  8
LAYER_1
 10
18.4996
 20
-131.802
  0
SEQEND
  0
POLYLINE
  8
LAYER_1
 40
0.1764
 41
0.1764
 62
3
 66
1
 10
0
 20
0
 30
0
  0
VERTEX
  8
LAYER_1
 10
18.4996
 20
-121.8073
  0
VERTEX
  8
LAYER_1
 10
25.3688
 20
-125.7713
  0
SEQEND
  0
POLYLINE
  8
LAYER_1
 40
0.1764
 41
0.1764
 62
3
 66
1
 10
0
 20
0
 30
0
  0
VERTEX
  8
LAYER_1
 10
18.4996
 20
-123.8062
  0
VERTEX
  8
LAYER_1
 10
25.1401
 20
-127.6431
  0
SEQEND
  0
POLYLINE
  8
LAYER_1
 40
0.1764
 41
0.1764
 62
3
 66
1
 10
0
 20
0
 30
0
  0
VERTEX
  8
LAYER_1
 10
18.4996
 20
-125.8051
  0
VERTEX
  8
LAYER_1
 10
25.0724
 20
-129.5997
  0
SEQEND
  0
POLYLINE
  8
LAYER_1
 40
0.1764
 41
0.1764
 62
3
 66
1
 10
0
 20
0
 30
0
  0
VERTEX
  8
LAYER_1
 10
25.4281
 20
-131.8019
  0
VERTEX
  8
LAYER_1
 10
25.4281
 20
-123.8062
  0
SEQEND
  0
POLYLINE
  8
LAYER_1
 40
0.1764
 41
0.1764
 62
3
 66
1
 10
0
 20
0
 30
0
  0
VERTEX
  8
LAYER_1
 10
24.9961
 20
-123.5606
  0
VERTEX
  8
LAYER_1
 10
25.4281
 20
-123.8062
  0
SEQEND
  0
POLYLINE
  8
LAYER_1
 40
0.1764
 41
0.1764
 62
3
 66
1
 10
0
 20
0
 30
0
  0
VERTEX
  8
LAYER_1
 10
25.1401
 20
-127.6431
  0
VERTEX
  8
LAYER_1
 10
25.4281
 20
-127.8041
  0
SEQEND
  0
POLYLINE
  8
LAYER_1
 40
0.1764
 41
0.1764
 62
3
 66
1
 10
0
 20
0
 30
0
  0
VERTEX
  8
LAYER_1
 10
25.0724
 20
-129.5997
  0
VERTEX
  8
LAYER_1
 10
25.4281
 20
-129.803
  0
SEQEND
  0
POLYLINE
  8
LAYER_1
 40
0.1764
 41
0.1764
 62
3
 66
1
 10
0
 20
0
 30
0
  0
VERTEX
  8
LAYER_1
 10
18.4996
 20
-135.8083
  0
VERTEX
  8
LAYER_1
 10
25.4281
 20
-131.8019
  0
SEQEND
  0
POLYLINE
  8
LAYER_1
 40
0.1764
 41
0.1764
 62
3
 66
1
 10
0
 20
0
 30
0
  0
VERTEX
  8
LAYER_1
 10
18.4996
 20
-127.8041
  0
VERTEX
  8
LAYER_1
 10
25.4281
 20
-131.8019
  0
SEQEND
  0
POLYLINE
  8
LAYER_1
 40
0.1764
 41
0.1764
 62
3
 66
1
 10
0
 20
0
 30
0
  0
VERTEX
  8
LAYER_1
 10
18.4996
 20
-129.803
  0
VERTEX
  8
LAYER_1
 10
20.2275
 20
-128.8035
  0
SEQEND
  0
POLYLINE
  8
LAYER_1
 40
0.1764
 41
0.1764
 62
3
 66
1
 10
0
 20
0
 30
0
  0
VERTEX
  8
LAYER_1
 10
18.4996
 20
-131.8019
  0
VERTEX
  8
LAYER_1
 10
21.9638
 20
-129.803
  0
SEQEND
  0
POLYLINE
  8
LAYER_1
 40
0.1764
 41
0.1764
 62
3
 66
1
 10
0
 20
0
 30
0
  0
VERTEX
  8
LAYER_1
 10
18.4996
 20
-133.8008
  0
VERTEX
  8
LAYER_1
 10
23.6917
 20
-130.8024
  0
SEQEND
  0
ENDBLK
  0
BLOCK
  8
LAYER_1
  2
AIGNBL01020036
 70
64
 10
0
 20
0
 30
0
  3
AIGNBL01020036
  0
POLYLINE
  8
LAYER_1
 40
0.1764
 41
0.1764
 62
3
 66
1
 10
0
 20
0
 30
0
  0
VERTEX
  8
LAYER_1
 10
25.9662
 20
-148.3101
  0
VERTEX
  8
LAYER_1
 10
25.9662
 20
-132.3102
  0
VERTEX
  8
LAYER_1
 10
32.4628
 20
-136.0624
  0
SEQEND
  0
POLYLINE
  8
LAYER_1
 40
0.1764
 41
0.1764
 62
3
 66
1
 10
0
 20
0
 30
0
  0
VERTEX
  8
LAYER_1
 10
25.9662
 20
-134.3091
  0
VERTEX
  8
LAYER_1
 10
25.9662
 20
-132.3102
  0
SEQEND
  0
POLYLINE
  8
LAYER_1
 40
0.1764
 41
0.1764
 62
3
 66
1
 10
0
 20
0
 30
0
  0
VERTEX
  8
LAYER_1
 10
25.9662
 20
-136.3081
  0
VERTEX
  8
LAYER_1
 10
25.9662
 20
-134.3091
  0
SEQEND
  0
POLYLINE
  8
LAYER_1
 40
0.1764
 41
0.1764
 62
3
 66
1
 10
0
 20
0
 30
0
  0
VERTEX
  8
LAYER_1
 10
25.9662
 20
-138.307
  0
VERTEX
  8
LAYER_1
 10
25.9662
 20
-136.3081
  0
SEQEND
  0
POLYLINE
  8
LAYER_1
 40
0.1764
 41
0.1764
 62
3
 66
1
 10
0
 20
0
 30
0
  0
VERTEX
  8
LAYER_1
 10
25.9662
 20
-140.3059
  0
VERTEX
  8
LAYER_1
 10
25.9662
 20
-138.307
  0
SEQEND
  0
POLYLINE
  8
LAYER_1
 40
0.1764
 41
0.1764
 62
3
 66
1
 10
0
 20
0
 30
0
  0
VERTEX
  8
LAYER_1
 10
25.9662
 20
-142.3049
  0
VERTEX
  8
LAYER_1
 10
25.9662
 20
-140.3059
  0
SEQEND
  0
POLYLINE
  8
LAYER_1
 40
0.1764
 41
0.1764
 62
3
 66
1
 10
0
 20
0
 30
0
  0
VERTEX
  8
LAYER_1
 10
25.9662
 20
-144.3038
  0
VERTEX
  8
LAYER_1
 10
25.9662
 20
-142.3049
  0
SEQEND
  0
POLYLINE
  8
LAYER_1
 40
0.1764
 41
0.1764
 62
3
 66
1
 10
0
 20
0
 30
0
  0
VERTEX
  8
LAYER_1
 10
25.9662
 20
-146.3027
  0
VERTEX
  8
LAYER_1
 10
25.9662
 20
-144.3038
  0
SEQEND
  0
POLYLINE
  8
LAYER_1
 40
0.1764
 41
0.1764
 62
3
 66
1
 10
0
 20
0
 30
0
  0
VERTEX
  8
LAYER_1
 10
25.9662
 20
-134.3091
  0
VERTEX
  8
LAYER_1
 10
32.8355
 20
-138.2731
  0
SEQEND
  0
POLYLINE
  8
LAYER_1
 40
0.1764
 41
0.1764
 62
3
 66
1
 10
0
 20
0
 30
0
  0
VERTEX
  8
LAYER_1
 10
25.9662
 20
-136.308
  0
VERTEX
  8
LAYER_1
 10
32.6068
 20
-140.145
  0
SEQEND
  0
POLYLINE
  8
LAYER_1
 40
0.1764
 41
0.1764
 62
3
 66
1
 10
0
 20
0
 30
0
  0
VERTEX
  8
LAYER_1
 10
25.9662
 20
-138.307
  0
VERTEX
  8
LAYER_1
 10
32.539
 20
-142.1016
  0
SEQEND
  0
POLYLINE
  8
LAYER_1
 40
0.1764
 41
0.1764
 62
3
 66
1
 10
0
 20
0
 30
0
  0
VERTEX
  8
LAYER_1
 10
32.8948
 20
-144.3038
  0
VERTEX
  8
LAYER_1
 10
32.8948
 20
-136.308
  0
SEQEND
  0
POLYLINE
  8
LAYER_1
 40
0.1764
 41
0.1764
 62
3
 66
1
 10
0
 20
0
 30
0
  0
VERTEX
  8
LAYER_1
 10
32.4628
 20
-136.0624
  0
VERTEX
  8
LAYER_1
 10
32.8948
 20
-136.308
  0
SEQEND
  0
POLYLINE
  8
LAYER_1
 40
0.1764
 41
0.1764
 62
3
 66
1
 10
0
 20
0
 30
0
  0
VERTEX
  8
LAYER_1
 10
32.6068
 20
-140.145
  0
VERTEX
  8
LAYER_1
 10
32.8948
 20
-140.3059
  0
SEQEND
  0
POLYLINE
  8
LAYER_1
 40
0.1764
 41
0.1764
 62
3
 66
1
 10
0
 20
0
 30
0
  0
VERTEX
  8
LAYER_1
 10
32.539
 20
-142.1016
  0
VERTEX
  8
LAYER_1
 10
32.8948
 20
-142.3048
  0
SEQEND
  0
POLYLINE
  8
LAYER_1
 40
0.1764
 41
0.1764
 62
3
 66
1
 10
0
 20
0
 30
0
  0
VERTEX
  8
LAYER_1
 10
25.9663
 20
-148.3101
  0
VERTEX
  8
LAYER_1
 10
32.8948
 20
-144.3038
  0
SEQEND
  0
POLYLINE
  8
LAYER_1
 40
0.1764
 41
0.1764
 62
3
 66
1
 10
0
 20
0
 30
0
  0
VERTEX
  8
LAYER_1
 10
25.9663
 20
-140.3059
  0
VERTEX
  8
LAYER_1
 10
32.8948
 20
-144.3038
  0
SEQEND
  0
POLYLINE
  8
LAYER_1
 40
0.1764
 41
0.1764
 62
3
 66
1
 10
0
 20
0
 30
0
  0
VERTEX
  8
LAYER_1
 10
25.9663
 20
-142.3048
  0
VERTEX
  8
LAYER_1
 10
27.6941
 20
-141.3054
  0
SEQEND
  0
POLYLINE
  8
LAYER_1
 40
0.1764
 41
0.1764
 62
3
 66
1
 10
0
 20
0
 30
0
  0
VERTEX
  8
LAYER_1
 10
25.9663
 20
-144.3038
  0
VERTEX
  8
LAYER_1
 10
29.4305
 20
-142.3048
  0
SEQEND
  0
POLYLINE
  8
LAYER_1
 40
0.1764
 41
0.1764
 62
3
 66
1
 10
0
 20
0
 30
0
  0
VERTEX
  8
LAYER_1
 10
25.9663
 20
-146.3027
  0
VERTEX
  8
LAYER_1
 10
31.1584
 20
-143.3043
  0
SEQEND
  0
ENDBLK
  0
BLOCK
  8
LAYER_1
  2
AIGNBL01020039
 70
64
 10
0
 20
0
 30
0
  3
AIGNBL01020039
  0
POLYLINE
  8
LAYER_1
 40
0.1764
 41
0.1764
 62
3
 66
1
 10
0
 20
0
 30
0
  0
VERTEX
  8
LAYER_1
 10
33.3947
 20
-85.817
  0
VERTEX
  8
LAYER_1
 10
33.3947
 20
-69.817
  0
VERTEX
  8
LAYER_1
 10
39.8913
 20
-73.5693
  0
SEQEND
  0
POLYLINE
  8
LAYER_1
 40
0.1764
 41
0.1764
 62
3
 66
1
 10
0
 20
0
 30
0
  0
VERTEX
  8
LAYER_1
 10
33.3947
 20
-71.816
  0
VERTEX
  8
LAYER_1
 10
33.3947
 20
-69.817
  0
SEQEND
  0
POLYLINE
  8
LAYER_1
 40
0.1764
 41
0.1764
 62
3
 66
1
 10
0
 20
0
 30
0
  0
VERTEX
  8
LAYER_1
 10
33.3947
 20
-73.8149
  0
VERTEX
  8
LAYER_1
 10
33.3947
 20
-71.816
  0
SEQEND
  0
POLYLINE
  8
LAYER_1
 40
0.1764
 41
0.1764
 62
3
 66
1
 10
0
 20
0
 30
0
  0
VERTEX
  8
LAYER_1
 10
33.3947
 20
-75.8138
  0
VERTEX
  8
LAYER_1
 10
33.3947
 20
-73.8149
  0
SEQEND
  0
POLYLINE
  8
LAYER_1
 40
0.1764
 41
0.1764
 62
3
 66
1
 10
0
 20
0
 30
0
  0
VERTEX
  8
LAYER_1
 10
33.3947
 20
-77.8128
  0
VERTEX
  8
LAYER_1
 10
33.3947
 20
-75.8138
  0
SEQEND
  0
POLYLINE
  8
LAYER_1
 40
0.1764
 41
0.1764
 62
3
 66
1
 10
0
 20
0
 30
0
  0
VERTEX
  8
LAYER_1
 10
33.3947
 20
-79.8117
  0
VERTEX
  8
LAYER_1
 10
33.3947
 20
-77.8128
  0
SEQEND
  0
POLYLINE
  8
LAYER_1
 40
0.1764
 41
0.1764
 62
3
 66
1
 10
0
 20
0
 30
0
  0
VERTEX
  8
LAYER_1
 10
33.3947
 20
-81.8106
  0
VERTEX
  8
LAYER_1
 10
33.3947
 20
-79.8117
  0
SEQEND
  0
POLYLINE
  8
LAYER_1
 40
0.1764
 41
0.1764
 62
3
 66
1
 10
0
 20
0
 30
0
  0
VERTEX
  8
LAYER_1
 10
33.3947
 20
-83.8095
  0
VERTEX
  8
LAYER_1
 10
33.3947
 20
-81.8106
  0
SEQEND
  0
POLYLINE
  8
LAYER_1
 40
0.1764
 41
0.1764
 62
3
 66
1
 10
0
 20
0
 30
0
  0
VERTEX
  8
LAYER_1
 10
33.3947
 20
-71.8159
  0
VERTEX
  8
LAYER_1
 10
40.264
 20
-75.7799
  0
SEQEND
  0
POLYLINE
  8
LAYER_1
 40
0.1764
 41
0.1764
 62
3
 66
1
 10
0
 20
0
 30
0
  0
VERTEX
  8
LAYER_1
 10
33.3947
 20
-73.8149
  0
VERTEX
  8
LAYER_1
 10
40.0353
 20
-77.6518
  0
SEQEND
  0
POLYLINE
  8
LAYER_1
 40
0.1764
 41
0.1764
 62
3
 66
1
 10
0
 20
0
 30
0
  0
VERTEX
  8
LAYER_1
 10
33.3947
 20
-75.8138
  0
VERTEX
  8
LAYER_1
 10
39.9675
 20
-79.6084
  0
SEQEND
  0
POLYLINE
  8
LAYER_1
 40
0.1764
 41
0.1764
 62
3
 66
1
 10
0
 20
0
 30
0
  0
VERTEX
  8
LAYER_1
 10
40.3233
 20
-81.8106
  0
VERTEX
  8
LAYER_1
 10
40.3233
 20
-73.8149
  0
SEQEND
  0
POLYLINE
  8
LAYER_1
 40
0.1764
 41
0.1764
 62
3
 66
1
 10
0
 20
0
 30
0
  0
VERTEX
  8
LAYER_1
 10
39.8913
 20
-73.5692
  0
VERTEX
  8
LAYER_1
 10
40.3233
 20
-73.8149
  0
SEQEND
  0
POLYLINE
  8
LAYER_1
 40
0.1764
 41
0.1764
 62
3
 66
1
 10
0
 20
0
 30
0
  0
VERTEX
  8
LAYER_1
 10
40.0353
 20
-77.6518
  0
VERTEX
  8
LAYER_1
 10
40.3233
 20
-77.8127
  0
SEQEND
  0
POLYLINE
  8
LAYER_1
 40
0.1764
 41
0.1764
 62
3
 66
1
 10
0
 20
0
 30
0
  0
VERTEX
  8
LAYER_1
 10
39.9675
 20
-79.6084
  0
VERTEX
  8
LAYER_1
 10
40.3233
 20
-79.8117
  0
SEQEND
  0
POLYLINE
  8
LAYER_1
 40
0.1764
 41
0.1764
 62
3
 66
1
 10
0
 20
0
 30
0
  0
VERTEX
  8
LAYER_1
 10
33.3948
 20
-85.8169
  0
VERTEX
  8
LAYER_1
 10
40.3233
 20
-81.8106
  0
SEQEND
  0
POLYLINE
  8
LAYER_1
 40
0.1764
 41
0.1764
 62
3
 66
1
 10
0
 20
0
 30
0
  0
VERTEX
  8
LAYER_1
 10
33.3948
 20
-77.8127
  0
VERTEX
  8
LAYER_1
 10
40.3233
 20
-81.8106
  0
SEQEND
  0
POLYLINE
  8
LAYER_1
 40
0.1764
 41
0.1764
 62
3
 66
1
 10
0
 20
0
 30
0
  0
VERTEX
  8
LAYER_1
 10
33.3948
 20
-79.8117
  0
VERTEX
  8
LAYER_1
 10
35.1226
 20
-78.8122
  0
SEQEND
  0
POLYLINE
  8
LAYER_1
 40
0.1764
 41
0.1764
 62
3
 66
1
 10
0
 20
0
 30
0
  0
VERTEX
  8
LAYER_1
 10
33.3948
 20
-81.8106
  0
VERTEX
  8
LAYER_1
 10
36.859
 20
-79.8117
  0
SEQEND
  0
POLYLINE
  8
LAYER_1
 40
0.1764
 41
0.1764
 62
3
 66
1
 10
0
 20
0
 30
0
  0
VERTEX
  8
LAYER_1
 10
33.3948
 20
-83.8095
  0
VERTEX
  8
LAYER_1
 10
38.5869
 20
-80.8111
  0
SEQEND
  0
ENDBLK
  0
BLOCK
  8
LAYER_1
  2
AIGNBL0102003C
 70
64
 10
0
 20
0
 30
0
  3
AIGNBL0102003C
  0
POLYLINE
  8
LAYER_1
 40
0.1764
 41
0.1764
 62
3
 66
1
 10
0
 20
0
 30
0
  0
VERTEX
  8
LAYER_1
 10
40.8614
 20
-98.3188
  0
VERTEX
  8
LAYER_1
 10
40.8614
 20
-82.3189
  0
VERTEX
  8
LAYER_1
 10
47.3579
 20
-86.0711
  0
SEQEND
  0
POLYLINE
  8
LAYER_1
 40
0.1764
 41
0.1764
 62
3
 66
1
 10
0
 20
0
 30
0
  0
VERTEX
  8
LAYER_1
 10
40.8614
 20
-84.3178
  0
VERTEX
  8
LAYER_1
 10
40.8614
 20
-82.3189
  0
SEQEND
  0
POLYLINE
  8
LAYER_1
 40
0.1764
 41
0.1764
 62
3
 66
1
 10
0
 20
0
 30
0
  0
VERTEX
  8
LAYER_1
 10
40.8614
 20
-86.3167
  0
VERTEX
  8
LAYER_1
 10
40.8614
 20
-84.3178
  0
SEQEND
  0
POLYLINE
  8
LAYER_1
 40
0.1764
 41
0.1764
 62
3
 66
1
 10
0
 20
0
 30
0
  0
VERTEX
  8
LAYER_1
 10
40.8614
 20
-88.3157
  0
VERTEX
  8
LAYER_1
 10
40.8614
 20
-86.3167
  0
SEQEND
  0
POLYLINE
  8
LAYER_1
 40
0.1764
 41
0.1764
 62
3
 66
1
 10
0
 20
0
 30
0
  0
VERTEX
  8
LAYER_1
 10
40.8614
 20
-90.3146
  0
VERTEX
  8
LAYER_1
 10
40.8614
 20
-88.3157
  0
SEQEND
  0
POLYLINE
  8
LAYER_1
 40
0.1764
 41
0.1764
 62
3
 66
1
 10
0
 20
0
 30
0
  0
VERTEX
  8
LAYER_1
 10
40.8614
 20
-92.3135
  0
VERTEX
  8
LAYER_1
 10
40.8614
 20
-90.3146
  0
SEQEND
  0
POLYLINE
  8
LAYER_1
 40
0.1764
 41
0.1764
 62
3
 66
1
 10
0
 20
0
 30
0
  0
VERTEX
  8
LAYER_1
 10
40.8614
 20
-94.3125
  0
VERTEX
  8
LAYER_1
 10
40.8614
 20
-92.3135
  0
SEQEND
  0
POLYLINE
  8
LAYER_1
 40
0.1764
 41
0.1764
 62
3
 66
1
 10
0
 20
0
 30
0
  0
VERTEX
  8
LAYER_1
 10
40.8614
 20
-96.3114
  0
VERTEX
  8
LAYER_1
 10
40.8614
 20
-94.3125
  0
SEQEND
  0
POLYLINE
  8
LAYER_1
 40
0.1764
 41
0.1764
 62
3
 66
1
 10
0
 20
0
 30
0
  0
VERTEX
  8
LAYER_1
 10
40.8614
 20
-84.3178
  0
VERTEX
  8
LAYER_1
 10
47.7306
 20
-88.2818
  0
SEQEND
  0
POLYLINE
  8
LAYER_1
 40
0.1764
 41
0.1764
 62
3
 66
1
 10
0
 20
0
 30
0
  0
VERTEX
  8
LAYER_1
 10
40.8614
 20
-86.3167
  0
VERTEX
  8
LAYER_1
 10
47.5019
 20
-90.1537
  0
SEQEND
  0
POLYLINE
  8
LAYER_1
 40
0.1764
 41
0.1764
 62
3
 66
1
 10
0
 20
0
 30
0
  0
VERTEX
  8
LAYER_1
 10
40.8614
 20
-88.3156
  0
VERTEX
  8
LAYER_1
 10
47.4342
 20
-92.1102
  0
SEQEND
  0
POLYLINE
  8
LAYER_1
 40
0.1764
 41
0.1764
 62
3
 66
1
 10
0
 20
0
 30
0
  0
VERTEX
  8
LAYER_1
 10
47.7899
 20
-94.3124
  0
VERTEX
  8
LAYER_1
 10
47.7899
 20
-86.3167
  0
SEQEND
  0
POLYLINE
  8
LAYER_1
 40
0.1764
 41
0.1764
 62
3
 66
1
 10
0
 20
0
 30
0
  0
VERTEX
  8
LAYER_1
 10
47.3579
 20
-86.0711
  0
VERTEX
  8
LAYER_1
 10
47.7899
 20
-86.3167
  0
SEQEND
  0
POLYLINE
  8
LAYER_1
 40
0.1764
 41
0.1764
 62
3
 66
1
 10
0
 20
0
 30
0
  0
VERTEX
  8
LAYER_1
 10
47.5019
 20
-90.1536
  0
VERTEX
  8
LAYER_1
 10
47.7899
 20
-90.3146
  0
SEQEND
  0
POLYLINE
  8
LAYER_1
 40
0.1764
 41
0.1764
 62
3
 66
1
 10
0
 20
0
 30
0
  0
VERTEX
  8
LAYER_1
 10
47.4342
 20
-92.1102
  0
VERTEX
  8
LAYER_1
 10
47.7899
 20
-92.3135
  0
SEQEND
  0
POLYLINE
  8
LAYER_1
 40
0.1764
 41
0.1764
 62
3
 66
1
 10
0
 20
0
 30
0
  0
VERTEX
  8
LAYER_1
 10
40.8614
 20
-98.3188
  0
VERTEX
  8
LAYER_1
 10
47.7899
 20
-94.3124
  0
SEQEND
  0
POLYLINE
  8
LAYER_1
 40
0.1764
 41
0.1764
 62
3
 66
1
 10
0
 20
0
 30
0
  0
VERTEX
  8
LAYER_1
 10
40.8614
 20
-90.3146
  0
VERTEX
  8
LAYER_1
 10
47.7899
 20
-94.3124
  0
SEQEND
  0
POLYLINE
  8
LAYER_1
 40
0.1764
 41
0.1764
 62
3
 66
1
 10
0
 20
0
 30
0
  0
VERTEX
  8
LAYER_1
 10
40.8614
 20
-92.3135
  0
VERTEX
  8
LAYER_1
 10
42.5893
 20
-91.314
  0
SEQEND
  0
POLYLINE
  8
LAYER_1
 40
0.1764
 41
0.1764
 62
3
 66
1
 10
0
 20
0
 30
0
  0
VERTEX
  8
LAYER_1
 10
40.8614
 20
-94.3124
  0
VERTEX
  8
LAYER_1
 10
44.3257
 20
-92.3135
  0
SEQEND
  0
POLYLINE
  8
LAYER_1
 40
0.1764
 41
0.1764
 62
3
 66
1
 10
0
 20
0
 30
0
  0
VERTEX
  8
LAYER_1
 10
40.8614
 20
-96.3114
  0
VERTEX
  8
LAYER_1
 10
46.0536
 20
-93.313
  0
SEQEND
  0
ENDBLK
  0
BLOCK
  8
LAYER_1
  2
AIGNBL0102003F
 70
64
 10
0
 20
0
 30
0
  3
AIGNBL0102003F
  0
POLYLINE
  8
LAYER_1
 40
0.1764
 41
0.1764
 62
3
 66
1
 10
0
 20
0
 30
0
  0
VERTEX
  8
LAYER_1
 10
48.2899
 20
-85.817
  0
VERTEX
  8
LAYER_1
 10
48.2899
 20
-69.817
  0
VERTEX
  8
LAYER_1
 10
54.7865
 20
-73.5693
  0
SEQEND
  0
POLYLINE
  8
LAYER_1
 40
0.1764
 41
0.1764
 62
3
 66
1
 10
0
 20
0
 30
0
  0
VERTEX
  8
LAYER_1
 10
48.2899
 20
-71.816
  0
VERTEX
  8
LAYER_1
 10
48.2899
 20
-69.817
  0
SEQEND
  0
POLYLINE
  8
LAYER_1
 40
0.1764
 41
0.1764
 62
3
 66
1
 10
0
 20
0
 30
0
  0
VERTEX
  8
LAYER_1
 10
48.2899
 20
-73.8149
  0
VERTEX
  8
LAYER_1
 10
48.2899
 20
-71.816
  0
SEQEND
  0
POLYLINE
  8
LAYER_1
 40
0.1764
 41
0.1764
 62
3
 66
1
 10
0
 20
0
 30
0
  0
VERTEX
  8
LAYER_1
 10
48.2899
 20
-75.8138
  0
VERTEX
  8
LAYER_1
 10
48.2899
 20
-73.8149
  0
SEQEND
  0
POLYLINE
  8
LAYER_1
 40
0.1764
 41
0.1764
 62
3
 66
1
 10
0
 20
0
 30
0
  0
VERTEX
  8
LAYER_1
 10
48.2899
 20
-77.8128
  0
VERTEX
  8
LAYER_1
 10
48.2899
 20
-75.8138
  0
SEQEND
  0
POLYLINE
  8
LAYER_1
 40
0.1764
 41
0.1764
 62
3
 66
1
 10
0
 20
0
 30
0
  0
VERTEX
  8
LAYER_1
 10
48.2899
 20
-79.8117
  0
VERTEX
  8
LAYER_1
 10
48.2899
 20
-77.8128
  0
SEQEND
  0
POLYLINE
  8
LAYER_1
 40
0.1764
 41
0.1764
 62
3
 66
1
 10
0
 20
0
 30
0
  0
VERTEX
  8
LAYER_1
 10
48.2899
 20
-81.8106
  0
VERTEX
  8
LAYER_1
 10
48.2899
 20
-79.8117
  0
SEQEND
  0
POLYLINE
  8
LAYER_1
 40
0.1764
 41
0.1764
 62
3
 66
1
 10
0
 20
0
 30
0
  0
VERTEX
  8
LAYER_1
 10
48.2899
 20
-83.8095
  0
VERTEX
  8
LAYER_1
 10
48.2899
 20
-81.8106
  0
SEQEND
  0
POLYLINE
  8
LAYER_1
 40
0.1764
 41
0.1764
 62
3
 66
1
 10
0
 20
0
 30
0
  0
VERTEX
  8
LAYER_1
 10
48.2899
 20
-71.8159
  0
VERTEX
  8
LAYER_1
 10
55.1591
 20
-75.7799
  0
SEQEND
  0
POLYLINE
  8
LAYER_1
 40
0.1764
 41
0.1764
 62
3
 66
1
 10
0
 20
0
 30
0
  0
VERTEX
  8
LAYER_1
 10
48.2899
 20
-73.8149
  0
VERTEX
  8
LAYER_1
 10
54.9304
 20
-77.6518
  0
SEQEND
  0
POLYLINE
  8
LAYER_1
 40
0.1764
 41
0.1764
 62
3
 66
1
 10
0
 20
0
 30
0
  0
VERTEX
  8
LAYER_1
 10
48.2899
 20
-75.8138
  0
VERTEX
  8
LAYER_1
 10
54.8627
 20
-79.6084
  0
SEQEND
  0
POLYLINE
  8
LAYER_1
 40
0.1764
 41
0.1764
 62
3
 66
1
 10
0
 20
0
 30
0
  0
VERTEX
  8
LAYER_1
 10
55.2184
 20
-81.8106
  0
VERTEX
  8
LAYER_1
 10
55.2184
 20
-73.8149
  0
SEQEND
  0
POLYLINE
  8
LAYER_1
 40
0.1764
 41
0.1764
 62
3
 66
1
 10
0
 20
0
 30
0
  0
VERTEX
  8
LAYER_1
 10
54.7865
 20
-73.5692
  0
VERTEX
  8
LAYER_1
 10
55.2184
 20
-73.8149
  0
SEQEND
  0
POLYLINE
  8
LAYER_1
 40
0.1764
 41
0.1764
 62
3
 66
1
 10
0
 20
0
 30
0
  0
VERTEX
  8
LAYER_1
 10
54.9304
 20
-77.6518
  0
VERTEX
  8
LAYER_1
 10
55.2184
 20
-77.8127
  0
SEQEND
  0
POLYLINE
  8
LAYER_1
 40
0.1764
 41
0.1764
 62
3
 66
1
 10
0
 20
0
 30
0
  0
VERTEX
  8
LAYER_1
 10
54.8627
 20
-79.6084
  0
VERTEX
  8
LAYER_1
 10
55.2184
 20
-79.8117
  0
SEQEND
  0
POLYLINE
  8
LAYER_1
 40
0.1764
 41
0.1764
 62
3
 66
1
 10
0
 20
0
 30
0
  0
VERTEX
  8
LAYER_1
 10
48.2899
 20
-85.8169
  0
VERTEX
  8
LAYER_1
 10
55.2184
 20
-81.8106
  0
SEQEND
  0
POLYLINE
  8
LAYER_1
 40
0.1764
 41
0.1764
 62
3
 66
1
 10
0
 20
0
 30
0
  0
VERTEX
  8
LAYER_1
 10
48.2899
 20
-77.8127
  0
VERTEX
  8
LAYER_1
 10
55.2184
 20
-81.8106
  0
SEQEND
  0
POLYLINE
  8
LAYER_1
 40
0.1764
 41
0.1764
 62
3
 66
1
 10
0
 20
0
 30
0
  0
VERTEX
  8
LAYER_1
 10
48.2899
 20
-79.8117
  0
VERTEX
  8
LAYER_1
 10
50.0178
 20
-78.8122
  0
SEQEND
  0
POLYLINE
  8
LAYER_1
 40
0.1764
 41
0.1764
 62
3
 66
1
 10
0
 20
0
 30
0
  0
VERTEX
  8
LAYER_1
 10
48.2899
 20
-81.8106
  0
VERTEX
  8
LAYER_1
 10
51.7542
 20
-79.8117
  0
SEQEND
  0
POLYLINE
  8
LAYER_1
 40
0.1764
 41
0.1764
 62
3
 66
1
 10
0
 20
0
 30
0
  0
VERTEX
  8
LAYER_1
 10
48.2899
 20
-83.8095
  0
VERTEX
  8
LAYER_1
 10
53.4821
 20
-80.8111
  0
SEQEND
  0
ENDBLK
  0
BLOCK
  8
LAYER_1
  2
AIGNBL01020042
 70
64
 10
0
 20
0
 30
0
  3
AIGNBL01020042
  0
POLYLINE
  8
LAYER_1
 40
0.1764
 41
0.1764
 62
3
 66
1
 10
0
 20
0
 30
0
  0
VERTEX
  8
LAYER_1
 10
55.7566
 20
-98.3188
  0
VERTEX
  8
LAYER_1
 10
55.7566
 20
-82.3189
  0
VERTEX
  8
LAYER_1
 10
62.2531
 20
-86.0711
  0
SEQEND
  0
POLYLINE
  8
LAYER_1
 40
0.1764
 41
0.1764
 62
3
 66
1
 10
0
 20
0
 30
0
  0
VERTEX
  8
LAYER_1
 10
55.7566
 20
-84.3178
  0
VERTEX
  8
LAYER_1
 10
55.7566
 20
-82.3189
  0
SEQEND
  0
POLYLINE
  8
LAYER_1
 40
0.1764
 41
0.1764
 62
3
 66
1
 10
0
 20
0
 30
0
  0
VERTEX
  8
LAYER_1
 10
55.7566
 20
-86.3167
  0
VERTEX
  8
LAYER_1
 10
55.7566
 20
-84.3178
  0
SEQEND
  0
POLYLINE
  8
LAYER_1
 40
0.1764
 41
0.1764
 62
3
 66
1
 10
0
 20
0
 30
0
  0
VERTEX
  8
LAYER_1
 10
55.7566
 20
-88.3157
  0
VERTEX
  8
LAYER_1
 10
55.7566
 20
-86.3167
  0
SEQEND
  0
POLYLINE
  8
LAYER_1
 40
0.1764
 41
0.1764
 62
3
 66
1
 10
0
 20
0
 30
0
  0
VERTEX
  8
LAYER_1
 10
55.7566
 20
-90.3146
  0
VERTEX
  8
LAYER_1
 10
55.7566
 20
-88.3157
  0
SEQEND
  0
POLYLINE
  8
LAYER_1
 40
0.1764
 41
0.1764
 62
3
 66
1
 10
0
 20
0
 30
0
  0
VERTEX
  8
LAYER_1
 10
55.7566
 20
-92.3135
  0
VERTEX
  8
LAYER_1
 10
55.7566
 20
-90.3146
  0
SEQEND
  0
POLYLINE
  8
LAYER_1
 40
0.1764
 41
0.1764
 62
3
 66
1
 10
0
 20
0
 30
0
  0
VERTEX
  8
LAYER_1
 10
55.7566
 20
-94.3125
  0
VERTEX
  8
LAYER_1
 10
55.7566
 20
-92.3135
  0
SEQEND
  0
POLYLINE
  8
LAYER_1
 40
0.1764
 41
0.1764
 62
3
 66
1
 10
0
 20
0
 30
0
  0
VERTEX
  8
LAYER_1
 10
55.7566
 20
-96.3114
  0
VERTEX
  8
LAYER_1
 10
55.7566
 20
-94.3125
  0
SEQEND
  0
POLYLINE
  8
LAYER_1
 40
0.1764
 41
0.1764
 62
3
 66
1
 10
0
 20
0
 30
0
  0
VERTEX
  8
LAYER_1
 10
55.7566
 20
-84.3178
  0
VERTEX
  8
LAYER_1
 10
62.6258
 20
-88.2818
  0
SEQEND
  0
POLYLINE
  8
LAYER_1
 40
0.1764
 41
0.1764
 62
3
 66
1
 10
0
 20
0
 30
0
  0
VERTEX
  8
LAYER_1
 10
55.7566
 20
-86.3167
  0
VERTEX
  8
LAYER_1
 10
62.3971
 20
-90.1537
  0
SEQEND
  0
POLYLINE
  8
LAYER_1
 40
0.1764
 41
0.1764
 62
3
 66
1
 10
0
 20
0
 30
0
  0
VERTEX
  8
LAYER_1
 10
55.7566
 20
-88.3156
  0
VERTEX
  8
LAYER_1
 10
62.3294
 20
-92.1102
  0
SEQEND
  0
POLYLINE
  8
LAYER_1
 40
0.1764
 41
0.1764
 62
3
 66
1
 10
0
 20
0
 30
0
  0
VERTEX
  8
LAYER_1
 10
62.6851
 20
-94.3124
  0
VERTEX
  8
LAYER_1
 10
62.6851
 20
-86.3167
  0
SEQEND
  0
POLYLINE
  8
LAYER_1
 40
0.1764
 41
0.1764
 62
3
 66
1
 10
0
 20
0
 30
0
  0
VERTEX
  8
LAYER_1
 10
62.2531
 20
-86.0711
  0
VERTEX
  8
LAYER_1
 10
62.6851
 20
-86.3167
  0
SEQEND
  0
POLYLINE
  8
LAYER_1
 40
0.1764
 41
0.1764
 62
3
 66
1
 10
0
 20
0
 30
0
  0
VERTEX
  8
LAYER_1
 10
62.3971
 20
-90.1536
  0
VERTEX
  8
LAYER_1
 10
62.6851
 20
-90.3146
  0
SEQEND
  0
POLYLINE
  8
LAYER_1
 40
0.1764
 41
0.1764
 62
3
 66
1
 10
0
 20
0
 30
0
  0
VERTEX
  8
LAYER_1
 10
62.3294
 20
-92.1102
  0
VERTEX
  8
LAYER_1
 10
62.6851
 20
-92.3135
  0
SEQEND
  0
POLYLINE
  8
LAYER_1
 40
0.1764
 41
0.1764
 62
3
 66
1
 10
0
 20
0
 30
0
  0
VERTEX
  8
LAYER_1
 10
55.7566
 20
-98.3188
  0
VERTEX
  8
LAYER_1
 10
62.6851
 20
-94.3124
  0
SEQEND
  0
POLYLINE
  8
LAYER_1
 40
0.1764
 41
0.1764
 62
3
 66
1
 10
0
 20
0
 30
0
  0
VERTEX
  8
LAYER_1
 10
55.7566
 20
-90.3146
  0
VERTEX
  8
LAYER_1
 10
62.6851
 20
-94.3124
  0
SEQEND
  0
POLYLINE
  8
LAYER_1
 40
0.1764
 41
0.1764
 62
3
 66
1
 10
0
 20
0
 30
0
  0
VERTEX
  8
LAYER_1
 10
55.7566
 20
-92.3135
  0
VERTEX
  8
LAYER_1
 10
57.4845
 20
-91.314
  0
SEQEND
  0
POLYLINE
  8
LAYER_1
 40
0.1764
 41
0.1764
 62
3
 66
1
 10
0
 20
0
 30
0
  0
VERTEX
  8
LAYER_1
 10
55.7566
 20
-94.3124
  0
VERTEX
  8
LAYER_1
 10
59.2208
 20
-92.3135
  0
SEQEND
  0
POLYLINE
  8
LAYER_1
 40
0.1764
 41
0.1764
 62
3
 66
1
 10
0
 20
0
 30
0
  0
VERTEX
  8
LAYER_1
 10
55.7566
 20
-96.3114
  0
VERTEX
  8
LAYER_1
 10
60.9487
 20
-93.313
  0
SEQEND
  0
ENDBLK
  0
BLOCK
  8
LAYER_1
  2
AIGNBL01020045
 70
64
 10
0
 20
0
 30
0
  3
AIGNBL01020045
  0
POLYLINE
  8
LAYER_1
 40
0.1764
 41
0.1764
 62
3
 66
1
 10
0
 20
0
 30
0
  0
VERTEX
  8
LAYER_1
 10
33.3948
 20
-110.8126
  0
VERTEX
  8
LAYER_1
 10
33.3948
 20
-94.8127
  0
VERTEX
  8
LAYER_1
 10
39.8913
 20
-98.5649
  0
SEQEND
  0
POLYLINE
  8
LAYER_1
 40
0.1764
 41
0.1764
 62
3
 66
1
 10
0
 20
0
 30
0
  0
VERTEX
  8
LAYER_1
 10
33.3948
 20
-96.8116
  0
VERTEX
  8
LAYER_1
 10
33.3948
 20
-94.8127
  0
SEQEND
  0
POLYLINE
  8
LAYER_1
 40
0.1764
 41
0.1764
 62
3
 66
1
 10
0
 20
0
 30
0
  0
VERTEX
  8
LAYER_1
 10
33.3948
 20
-98.8106
  0
VERTEX
  8
LAYER_1
 10
33.3948
 20
-96.8116
  0
SEQEND
  0
POLYLINE
  8
LAYER_1
 40
0.1764
 41
0.1764
 62
3
 66
1
 10
0
 20
0
 30
0
  0
VERTEX
  8
LAYER_1
 10
33.3948
 20
-100.8095
  0
VERTEX
  8
LAYER_1
 10
33.3948
 20
-98.8106
  0
SEQEND
  0
POLYLINE
  8
LAYER_1
 40
0.1764
 41
0.1764
 62
3
 66
1
 10
0
 20
0
 30
0
  0
VERTEX
  8
LAYER_1
 10
33.3948
 20
-102.8084
  0
VERTEX
  8
LAYER_1
 10
33.3948
 20
-100.8095
  0
SEQEND
  0
POLYLINE
  8
LAYER_1
 40
0.1764
 41
0.1764
 62
3
 66
1
 10
0
 20
0
 30
0
  0
VERTEX
  8
LAYER_1
 10
33.3948
 20
-104.8074
  0
VERTEX
  8
LAYER_1
 10
33.3948
 20
-102.8084
  0
SEQEND
  0
POLYLINE
  8
LAYER_1
 40
0.1764
 41
0.1764
 62
3
 66
1
 10
0
 20
0
 30
0
  0
VERTEX
  8
LAYER_1
 10
33.3948
 20
-106.8063
  0
VERTEX
  8
LAYER_1
 10
33.3948
 20
-104.8074
  0
SEQEND
  0
POLYLINE
  8
LAYER_1
 40
0.1764
 41
0.1764
 62
3
 66
1
 10
0
 20
0
 30
0
  0
VERTEX
  8
LAYER_1
 10
33.3948
 20
-108.8052
  0
VERTEX
  8
LAYER_1
 10
33.3948
 20
-106.8063
  0
SEQEND
  0
POLYLINE
  8
LAYER_1
 40
0.1764
 41
0.1764
 62
3
 66
1
 10
0
 20
0
 30
0
  0
VERTEX
  8
LAYER_1
 10
33.3948
 20
-96.8116
  0
VERTEX
  8
LAYER_1
 10
40.264
 20
-100.7756
  0
SEQEND
  0
POLYLINE
  8
LAYER_1
 40
0.1764
 41
0.1764
 62
3
 66
1
 10
0
 20
0
 30
0
  0
VERTEX
  8
LAYER_1
 10
33.3948
 20
-98.8105
  0
VERTEX
  8
LAYER_1
 10
40.0353
 20
-102.6475
  0
SEQEND
  0
POLYLINE
  8
LAYER_1
 40
0.1764
 41
0.1764
 62
3
 66
1
 10
0
 20
0
 30
0
  0
VERTEX
  8
LAYER_1
 10
33.3948
 20
-100.8095
  0
VERTEX
  8
LAYER_1
 10
39.9675
 20
-104.6041
  0
SEQEND
  0
POLYLINE
  8
LAYER_1
 40
0.1764
 41
0.1764
 62
3
 66
1
 10
0
 20
0
 30
0
  0
VERTEX
  8
LAYER_1
 10
40.3233
 20
-106.8063
  0
VERTEX
  8
LAYER_1
 10
40.3233
 20
-98.8105
  0
SEQEND
  0
POLYLINE
  8
LAYER_1
 40
0.1764
 41
0.1764
 62
3
 66
1
 10
0
 20
0
 30
0
  0
VERTEX
  8
LAYER_1
 10
39.8913
 20
-98.5649
  0
VERTEX
  8
LAYER_1
 10
40.3233
 20
-98.8105
  0
SEQEND
  0
POLYLINE
  8
LAYER_1
 40
0.1764
 41
0.1764
 62
3
 66
1
 10
0
 20
0
 30
0
  0
VERTEX
  8
LAYER_1
 10
40.0353
 20
-102.6475
  0
VERTEX
  8
LAYER_1
 10
40.3233
 20
-102.8084
  0
SEQEND
  0
POLYLINE
  8
LAYER_1
 40
0.1764
 41
0.1764
 62
3
 66
1
 10
0
 20
0
 30
0
  0
VERTEX
  8
LAYER_1
 10
39.9675
 20
-104.604
  0
VERTEX
  8
LAYER_1
 10
40.3233
 20
-104.8073
  0
SEQEND
  0
POLYLINE
  8
LAYER_1
 40
0.1764
 41
0.1764
 62
3
 66
1
 10
0
 20
0
 30
0
  0
VERTEX
  8
LAYER_1
 10
33.3948
 20
-110.8126
  0
VERTEX
  8
LAYER_1
 10
40.3233
 20
-106.8063
  0
SEQEND
  0
POLYLINE
  8
LAYER_1
 40
0.1764
 41
0.1764
 62
3
 66
1
 10
0
 20
0
 30
0
  0
VERTEX
  8
LAYER_1
 10
33.3948
 20
-102.8084
  0
VERTEX
  8
LAYER_1
 10
40.3233
 20
-106.8063
  0
SEQEND
  0
POLYLINE
  8
LAYER_1
 40
0.1764
 41
0.1764
 62
3
 66
1
 10
0
 20
0
 30
0
  0
VERTEX
  8
LAYER_1
 10
33.3948
 20
-104.8073
  0
VERTEX
  8
LAYER_1
 10
35.1226
 20
-103.8079
  0
SEQEND
  0
POLYLINE
  8
LAYER_1
 40
0.1764
 41
0.1764
 62
3
 66
1
 10
0
 20
0
 30
0
  0
VERTEX
  8
LAYER_1
 10
33.3948
 20
-106.8063
  0
VERTEX
  8
LAYER_1
 10
36.859
 20
-104.8073
  0
SEQEND
  0
POLYLINE
  8
LAYER_1
 40
0.1764
 41
0.1764
 62
3
 66
1
 10
0
 20
0
 30
0
  0
VERTEX
  8
LAYER_1
 10
33.3948
 20
-108.8052
  0
VERTEX
  8
LAYER_1
 10
38.5869
 20
-105.8068
  0
SEQEND
  0
ENDBLK
  0
BLOCK
  8
LAYER_1
  2
AIGNBL01020048
 70
64
 10
0
 20
0
 30
0
  3
AIGNBL01020048
  0
POLYLINE
  8
LAYER_1
 40
0.1764
 41
0.1764
 62
3
 66
1
 10
0
 20
0
 30
0
  0
VERTEX
  8
LAYER_1
 10
40.8614
 20
-123.3145
  0
VERTEX
  8
LAYER_1
 10
40.8614
 20
-107.3145
  0
VERTEX
  8
LAYER_1
 10
47.3579
 20
-111.0668
  0
SEQEND
  0
POLYLINE
  8
LAYER_1
 40
0.1764
 41
0.1764
 62
3
 66
1
 10
0
 20
0
 30
0
  0
VERTEX
  8
LAYER_1
 10
40.8614
 20
-109.3135
  0
VERTEX
  8
LAYER_1
 10
40.8614
 20
-107.3145
  0
SEQEND
  0
POLYLINE
  8
LAYER_1
 40
0.1764
 41
0.1764
 62
3
 66
1
 10
0
 20
0
 30
0
  0
VERTEX
  8
LAYER_1
 10
40.8614
 20
-111.3124
  0
VERTEX
  8
LAYER_1
 10
40.8614
 20
-109.3135
  0
SEQEND
  0
POLYLINE
  8
LAYER_1
 40
0.1764
 41
0.1764
 62
3
 66
1
 10
0
 20
0
 30
0
  0
VERTEX
  8
LAYER_1
 10
40.8614
 20
-113.3113
  0
VERTEX
  8
LAYER_1
 10
40.8614
 20
-111.3124
  0
SEQEND
  0
POLYLINE
  8
LAYER_1
 40
0.1764
 41
0.1764
 62
3
 66
1
 10
0
 20
0
 30
0
  0
VERTEX
  8
LAYER_1
 10
40.8614
 20
-115.3103
  0
VERTEX
  8
LAYER_1
 10
40.8614
 20
-113.3113
  0
SEQEND
  0
POLYLINE
  8
LAYER_1
 40
0.1764
 41
0.1764
 62
3
 66
1
 10
0
 20
0
 30
0
  0
VERTEX
  8
LAYER_1
 10
40.8614
 20
-117.3092
  0
VERTEX
  8
LAYER_1
 10
40.8614
 20
-115.3103
  0
SEQEND
  0
POLYLINE
  8
LAYER_1
 40
0.1764
 41
0.1764
 62
3
 66
1
 10
0
 20
0
 30
0
  0
VERTEX
  8
LAYER_1
 10
40.8614
 20
-119.3081
  0
VERTEX
  8
LAYER_1
 10
40.8614
 20
-117.3092
  0
SEQEND
  0
POLYLINE
  8
LAYER_1
 40
0.1764
 41
0.1764
 62
3
 66
1
 10
0
 20
0
 30
0
  0
VERTEX
  8
LAYER_1
 10
40.8614
 20
-121.3071
  0
VERTEX
  8
LAYER_1
 10
40.8614
 20
-119.3081
  0
SEQEND
  0
POLYLINE
  8
LAYER_1
 40
0.1764
 41
0.1764
 62
3
 66
1
 10
0
 20
0
 30
0
  0
VERTEX
  8
LAYER_1
 10
40.8614
 20
-109.3135
  0
VERTEX
  8
LAYER_1
 10
47.7306
 20
-113.2774
  0
SEQEND
  0
POLYLINE
  8
LAYER_1
 40
0.1764
 41
0.1764
 62
3
 66
1
 10
0
 20
0
 30
0
  0
VERTEX
  8
LAYER_1
 10
40.8614
 20
-111.3124
  0
VERTEX
  8
LAYER_1
 10
47.5019
 20
-115.1493
  0
SEQEND
  0
POLYLINE
  8
LAYER_1
 40
0.1764
 41
0.1764
 62
3
 66
1
 10
0
 20
0
 30
0
  0
VERTEX
  8
LAYER_1
 10
40.8614
 20
-113.3113
  0
VERTEX
  8
LAYER_1
 10
47.4342
 20
-117.1059
  0
SEQEND
  0
POLYLINE
  8
LAYER_1
 40
0.1764
 41
0.1764
 62
3
 66
1
 10
0
 20
0
 30
0
  0
VERTEX
  8
LAYER_1
 10
47.7899
 20
-119.3081
  0
VERTEX
  8
LAYER_1
 10
47.7899
 20
-111.3124
  0
SEQEND
  0
POLYLINE
  8
LAYER_1
 40
0.1764
 41
0.1764
 62
3
 66
1
 10
0
 20
0
 30
0
  0
VERTEX
  8
LAYER_1
 10
47.3579
 20
-111.0667
  0
VERTEX
  8
LAYER_1
 10
47.7899
 20
-111.3124
  0
SEQEND
  0
POLYLINE
  8
LAYER_1
 40
0.1764
 41
0.1764
 62
3
 66
1
 10
0
 20
0
 30
0
  0
VERTEX
  8
LAYER_1
 10
47.5019
 20
-115.1493
  0
VERTEX
  8
LAYER_1
 10
47.7899
 20
-115.3102
  0
SEQEND
  0
POLYLINE
  8
LAYER_1
 40
0.1764
 41
0.1764
 62
3
 66
1
 10
0
 20
0
 30
0
  0
VERTEX
  8
LAYER_1
 10
47.4342
 20
-117.1059
  0
VERTEX
  8
LAYER_1
 10
47.7899
 20
-117.3092
  0
SEQEND
  0
POLYLINE
  8
LAYER_1
 40
0.1764
 41
0.1764
 62
3
 66
1
 10
0
 20
0
 30
0
  0
VERTEX
  8
LAYER_1
 10
40.8614
 20
-123.3144
  0
VERTEX
  8
LAYER_1
 10
47.7899
 20
-119.3081
  0
SEQEND
  0
POLYLINE
  8
LAYER_1
 40
0.1764
 41
0.1764
 62
3
 66
1
 10
0
 20
0
 30
0
  0
VERTEX
  8
LAYER_1
 10
40.8614
 20
-115.3102
  0
VERTEX
  8
LAYER_1
 10
47.7899
 20
-119.3081
  0
SEQEND
  0
POLYLINE
  8
LAYER_1
 40
0.1764
 41
0.1764
 62
3
 66
1
 10
0
 20
0
 30
0
  0
VERTEX
  8
LAYER_1
 10
40.8614
 20
-117.3092
  0
VERTEX
  8
LAYER_1
 10
42.5893
 20
-116.3097
  0
SEQEND
  0
POLYLINE
  8
LAYER_1
 40
0.1764
 41
0.1764
 62
3
 66
1
 10
0
 20
0
 30
0
  0
VERTEX
  8
LAYER_1
 10
40.8614
 20
-119.3081
  0
VERTEX
  8
LAYER_1
 10
44.3257
 20
-117.3092
  0
SEQEND
  0
POLYLINE
  8
LAYER_1
 40
0.1764
 41
0.1764
 62
3
 66
1
 10
0
 20
0
 30
0
  0
VERTEX
  8
LAYER_1
 10
40.8614
 20
-121.307
  0
VERTEX
  8
LAYER_1
 10
46.0536
 20
-118.3086
  0
SEQEND
  0
ENDBLK
  0
BLOCK
  8
LAYER_1
  2
AIGNBL0102004B
 70
64
 10
0
 20
0
 30
0
  3
AIGNBL0102004B
  0
POLYLINE
  8
LAYER_1
 40
0.1764
 41
0.1764
 62
3
 66
1
 10
0
 20
0
 30
0
  0
VERTEX
  8
LAYER_1
 10
48.2899
 20
-110.8126
  0
VERTEX
  8
LAYER_1
 10
48.2899
 20
-94.8127
  0
VERTEX
  8
LAYER_1
 10
54.7865
 20
-98.5649
  0
SEQEND
  0
POLYLINE
  8
LAYER_1
 40
0.1764
 41
0.1764
 62
3
 66
1
 10
0
 20
0
 30
0
  0
VERTEX
  8
LAYER_1
 10
48.2899
 20
-96.8116
  0
VERTEX
  8
LAYER_1
 10
48.2899
 20
-94.8127
  0
SEQEND
  0
POLYLINE
  8
LAYER_1
 40
0.1764
 41
0.1764
 62
3
 66
1
 10
0
 20
0
 30
0
  0
VERTEX
  8
LAYER_1
 10
48.2899
 20
-98.8106
  0
VERTEX
  8
LAYER_1
 10
48.2899
 20
-96.8116
  0
SEQEND
  0
POLYLINE
  8
LAYER_1
 40
0.1764
 41
0.1764
 62
3
 66
1
 10
0
 20
0
 30
0
  0
VERTEX
  8
LAYER_1
 10
48.2899
 20
-100.8095
  0
VERTEX
  8
LAYER_1
 10
48.2899
 20
-98.8106
  0
SEQEND
  0
POLYLINE
  8
LAYER_1
 40
0.1764
 41
0.1764
 62
3
 66
1
 10
0
 20
0
 30
0
  0
VERTEX
  8
LAYER_1
 10
48.2899
 20
-102.8084
  0
VERTEX
  8
LAYER_1
 10
48.2899
 20
-100.8095
  0
SEQEND
  0
POLYLINE
  8
LAYER_1
 40
0.1764
 41
0.1764
 62
3
 66
1
 10
0
 20
0
 30
0
  0
VERTEX
  8
LAYER_1
 10
48.2899
 20
-104.8074
  0
VERTEX
  8
LAYER_1
 10
48.2899
 20
-102.8084
  0
SEQEND
  0
POLYLINE
  8
LAYER_1
 40
0.1764
 41
0.1764
 62
3
 66
1
 10
0
 20
0
 30
0
  0
VERTEX
  8
LAYER_1
 10
48.2899
 20
-106.8063
  0
VERTEX
  8
LAYER_1
 10
48.2899
 20
-104.8074
  0
SEQEND
  0
POLYLINE
  8
LAYER_1
 40
0.1764
 41
0.1764
 62
3
 66
1
 10
0
 20
0
 30
0
  0
VERTEX
  8
LAYER_1
 10
48.2899
 20
-108.8052
  0
VERTEX
  8
LAYER_1
 10
48.2899
 20
-106.8063
  0
SEQEND
  0
POLYLINE
  8
LAYER_1
 40
0.1764
 41
0.1764
 62
3
 66
1
 10
0
 20
0
 30
0
  0
VERTEX
  8
LAYER_1
 10
48.2899
 20
-96.8116
  0
VERTEX
  8
LAYER_1
 10
55.1591
 20
-100.7756
  0
SEQEND
  0
POLYLINE
  8
LAYER_1
 40
0.1764
 41
0.1764
 62
3
 66
1
 10
0
 20
0
 30
0
  0
VERTEX
  8
LAYER_1
 10
48.2899
 20
-98.8105
  0
VERTEX
  8
LAYER_1
 10
54.9304
 20
-102.6475
  0
SEQEND
  0
POLYLINE
  8
LAYER_1
 40
0.1764
 41
0.1764
 62
3
 66
1
 10
0
 20
0
 30
0
  0
VERTEX
  8
LAYER_1
 10
48.2899
 20
-100.8095
  0
VERTEX
  8
LAYER_1
 10
54.8627
 20
-104.6041
  0
SEQEND
  0
POLYLINE
  8
LAYER_1
 40
0.1764
 41
0.1764
 62
3
 66
1
 10
0
 20
0
 30
0
  0
VERTEX
  8
LAYER_1
 10
55.2184
 20
-106.8063
  0
VERTEX
  8
LAYER_1
 10
55.2184
 20
-98.8105
  0
SEQEND
  0
POLYLINE
  8
LAYER_1
 40
0.1764
 41
0.1764
 62
3
 66
1
 10
0
 20
0
 30
0
  0
VERTEX
  8
LAYER_1
 10
54.7865
 20
-98.5649
  0
VERTEX
  8
LAYER_1
 10
55.2184
 20
-98.8105
  0
SEQEND
  0
POLYLINE
  8
LAYER_1
 40
0.1764
 41
0.1764
 62
3
 66
1
 10
0
 20
0
 30
0
  0
VERTEX
  8
LAYER_1
 10
54.9304
 20
-102.6475
  0
VERTEX
  8
LAYER_1
 10
55.2184
 20
-102.8084
  0
SEQEND
  0
POLYLINE
  8
LAYER_1
 40
0.1764
 41
0.1764
 62
3
 66
1
 10
0
 20
0
 30
0
  0
VERTEX
  8
LAYER_1
 10
54.8627
 20
-104.604
  0
VERTEX
  8
LAYER_1
 10
55.2184
 20
-104.8073
  0
SEQEND
  0
POLYLINE
  8
LAYER_1
 40
0.1764
 41
0.1764
 62
3
 66
1
 10
0
 20
0
 30
0
  0
VERTEX
  8
LAYER_1
 10
48.2899
 20
-110.8126
  0
VERTEX
  8
LAYER_1
 10
55.2184
 20
-106.8063
  0
SEQEND
  0
POLYLINE
  8
LAYER_1
 40
0.1764
 41
0.1764
 62
3
 66
1
 10
0
 20
0
 30
0
  0
VERTEX
  8
LAYER_1
 10
48.2899
 20
-102.8084
  0
VERTEX
  8
LAYER_1
 10
55.2184
 20
-106.8063
  0
SEQEND
  0
POLYLINE
  8
LAYER_1
 40
0.1764
 41
0.1764
 62
3
 66
1
 10
0
 20
0
 30
0
  0
VERTEX
  8
LAYER_1
 10
48.2899
 20
-104.8073
  0
VERTEX
  8
LAYER_1
 10
50.0178
 20
-103.8079
  0
SEQEND
  0
POLYLINE
  8
LAYER_1
 40
0.1764
 41
0.1764
 62
3
 66
1
 10
0
 20
0
 30
0
  0
VERTEX
  8
LAYER_1
 10
48.2899
 20
-106.8063
  0
VERTEX
  8
LAYER_1
 10
51.7542
 20
-104.8073
  0
SEQEND
  0
POLYLINE
  8
LAYER_1
 40
0.1764
 41
0.1764
 62
3
 66
1
 10
0
 20
0
 30
0
  0
VERTEX
  8
LAYER_1
 10
48.2899
 20
-108.8052
  0
VERTEX
  8
LAYER_1
 10
53.4821
 20
-105.8068
  0
SEQEND
  0
ENDBLK
  0
BLOCK
  8
LAYER_1
  2
AIGNBL0102004E
 70
64
 10
0
 20
0
 30
0
  3
AIGNBL0102004E
  0
POLYLINE
  8
LAYER_1
 40
0.1764
 41
0.1764
 62
3
 66
1
 10
0
 20
0
 30
0
  0
VERTEX
  8
LAYER_1
 10
55.7566
 20
-123.3145
  0
VERTEX
  8
LAYER_1
 10
55.7566
 20
-107.3145
  0
VERTEX
  8
LAYER_1
 10
62.2531
 20
-111.0668
  0
SEQEND
  0
POLYLINE
  8
LAYER_1
 40
0.1764
 41
0.1764
 62
3
 66
1
 10
0
 20
0
 30
0
  0
VERTEX
  8
LAYER_1
 10
55.7566
 20
-109.3135
  0
VERTEX
  8
LAYER_1
 10
55.7566
 20
-107.3145
  0
SEQEND
  0
POLYLINE
  8
LAYER_1
 40
0.1764
 41
0.1764
 62
3
 66
1
 10
0
 20
0
 30
0
  0
VERTEX
  8
LAYER_1
 10
55.7566
 20
-111.3124
  0
VERTEX
  8
LAYER_1
 10
55.7566
 20
-109.3135
  0
SEQEND
  0
POLYLINE
  8
LAYER_1
 40
0.1764
 41
0.1764
 62
3
 66
1
 10
0
 20
0
 30
0
  0
VERTEX
  8
LAYER_1
 10
55.7566
 20
-113.3113
  0
VERTEX
  8
LAYER_1
 10
55.7566
 20
-111.3124
  0
SEQEND
  0
POLYLINE
  8
LAYER_1
 40
0.1764
 41
0.1764
 62
3
 66
1
 10
0
 20
0
 30
0
  0
VERTEX
  8
LAYER_1
 10
55.7566
 20
-115.3103
  0
VERTEX
  8
LAYER_1
 10
55.7566
 20
-113.3113
  0
SEQEND
  0
POLYLINE
  8
LAYER_1
 40
0.1764
 41
0.1764
 62
3
 66
1
 10
0
 20
0
 30
0
  0
VERTEX
  8
LAYER_1
 10
55.7566
 20
-117.3092
  0
VERTEX
  8
LAYER_1
 10
55.7566
 20
-115.3103
  0
SEQEND
  0
POLYLINE
  8
LAYER_1
 40
0.1764
 41
0.1764
 62
3
 66
1
 10
0
 20
0
 30
0
  0
VERTEX
  8
LAYER_1
 10
55.7566
 20
-119.3081
  0
VERTEX
  8
LAYER_1
 10
55.7566
 20
-117.3092
  0
SEQEND
  0
POLYLINE
  8
LAYER_1
 40
0.1764
 41
0.1764
 62
3
 66
1
 10
0
 20
0
 30
0
  0
VERTEX
  8
LAYER_1
 10
55.7566
 20
-121.3071
  0
VERTEX
  8
LAYER_1
 10
55.7566
 20
-119.3081
  0
SEQEND
  0
POLYLINE
  8
LAYER_1
 40
0.1764
 41
0.1764
 62
3
 66
1
 10
0
 20
0
 30
0
  0
VERTEX
  8
LAYER_1
 10
55.7566
 20
-109.3135
  0
VERTEX
  8
LAYER_1
 10
62.6258
 20
-113.2774
  0
SEQEND
  0
POLYLINE
  8
LAYER_1
 40
0.1764
 41
0.1764
 62
3
 66
1
 10
0
 20
0
 30
0
  0
VERTEX
  8
LAYER_1
 10
55.7566
 20
-111.3124
  0
VERTEX
  8
LAYER_1
 10
62.3971
 20
-115.1493
  0
SEQEND
  0
POLYLINE
  8
LAYER_1
 40
0.1764
 41
0.1764
 62
3
 66
1
 10
0
 20
0
 30
0
  0
VERTEX
  8
LAYER_1
 10
55.7566
 20
-113.3113
  0
VERTEX
  8
LAYER_1
 10
62.3294
 20
-117.1059
  0
SEQEND
  0
POLYLINE
  8
LAYER_1
 40
0.1764
 41
0.1764
 62
3
 66
1
 10
0
 20
0
 30
0
  0
VERTEX
  8
LAYER_1
 10
62.6851
 20
-119.3081
  0
VERTEX
  8
LAYER_1
 10
62.6851
 20
-111.3124
  0
SEQEND
  0
POLYLINE
  8
LAYER_1
 40
0.1764
 41
0.1764
 62
3
 66
1
 10
0
 20
0
 30
0
  0
VERTEX
  8
LAYER_1
 10
62.2531
 20
-111.0667
  0
VERTEX
  8
LAYER_1
 10
62.6851
 20
-111.3124
  0
SEQEND
  0
POLYLINE
  8
LAYER_1
 40
0.1764
 41
0.1764
 62
3
 66
1
 10
0
 20
0
 30
0
  0
VERTEX
  8
LAYER_1
 10
62.3971
 20
-115.1493
  0
VERTEX
  8
LAYER_1
 10
62.6851
 20
-115.3102
  0
SEQEND
  0
POLYLINE
  8
LAYER_1
 40
0.1764
 41
0.1764
 62
3
 66
1
 10
0
 20
0
 30
0
  0
VERTEX
  8
LAYER_1
 10
62.3294
 20
-117.1059
  0
VERTEX
  8
LAYER_1
 10
62.6851
 20
-117.3092
  0
SEQEND
  0
POLYLINE
  8
LAYER_1
 40
0.1764
 41
0.1764
 62
3
 66
1
 10
0
 20
0
 30
0
  0
VERTEX
  8
LAYER_1
 10
55.7566
 20
-123.3144
  0
VERTEX
  8
LAYER_1
 10
62.6851
 20
-119.3081
  0
SEQEND
  0
POLYLINE
  8
LAYER_1
 40
0.1764
 41
0.1764
 62
3
 66
1
 10
0
 20
0
 30
0
  0
VERTEX
  8
LAYER_1
 10
55.7566
 20
-115.3102
  0
VERTEX
  8
LAYER_1
 10
62.6851
 20
-119.3081
  0
SEQEND
  0
POLYLINE
  8
LAYER_1
 40
0.1764
 41
0.1764
 62
3
 66
1
 10
0
 20
0
 30
0
  0
VERTEX
  8
LAYER_1
 10
55.7566
 20
-117.3092
  0
VERTEX
  8
LAYER_1
 10
57.4845
 20
-116.3097
  0
SEQEND
  0
POLYLINE
  8
LAYER_1
 40
0.1764
 41
0.1764
 62
3
 66
1
 10
0
 20
0
 30
0
  0
VERTEX
  8
LAYER_1
 10
55.7566
 20
-119.3081
  0
VERTEX
  8
LAYER_1
 10
59.2208
 20
-117.3092
  0
SEQEND
  0
POLYLINE
  8
LAYER_1
 40
0.1764
 41
0.1764
 62
3
 66
1
 10
0
 20
0
 30
0
  0
VERTEX
  8
LAYER_1
 10
55.7566
 20
-121.307
  0
VERTEX
  8
LAYER_1
 10
60.9487
 20
-118.3086
  0
SEQEND
  0
ENDBLK
  0
BLOCK
  8
LAYER_1
  2
AIGNBL01020051
 70
64
 10
0
 20
0
 30
0
  3
AIGNBL01020051
  0
POLYLINE
  8
LAYER_1
 40
0.1764
 41
0.1764
 62
3
 66
1
 10
0
 20
0
 30
0
  0
VERTEX
  8
LAYER_1
 10
33.3948
 20
-135.8083
  0
VERTEX
  8
LAYER_1
 10
33.3948
 20
-119.8084
  0
VERTEX
  8
LAYER_1
 10
39.8913
 20
-123.5606
  0
SEQEND
  0
POLYLINE
  8
LAYER_1
 40
0.1764
 41
0.1764
 62
3
 66
1
 10
0
 20
0
 30
0
  0
VERTEX
  8
LAYER_1
 10
33.3948
 20
-121.8073
  0
VERTEX
  8
LAYER_1
 10
33.3948
 20
-119.8084
  0
SEQEND
  0
POLYLINE
  8
LAYER_1
 40
0.1764
 41
0.1764
 62
3
 66
1
 10
0
 20
0
 30
0
  0
VERTEX
  8
LAYER_1
 10
33.3948
 20
-123.8062
  0
VERTEX
  8
LAYER_1
 10
33.3948
 20
-121.8073
  0
SEQEND
  0
POLYLINE
  8
LAYER_1
 40
0.1764
 41
0.1764
 62
3
 66
1
 10
0
 20
0
 30
0
  0
VERTEX
  8
LAYER_1
 10
33.3948
 20
-125.8052
  0
VERTEX
  8
LAYER_1
 10
33.3948
 20
-123.8062
  0
SEQEND
  0
POLYLINE
  8
LAYER_1
 40
0.1764
 41
0.1764
 62
3
 66
1
 10
0
 20
0
 30
0
  0
VERTEX
  8
LAYER_1
 10
33.3948
 20
-127.8041
  0
VERTEX
  8
LAYER_1
 10
33.3948
 20
-125.8052
  0
SEQEND
  0
POLYLINE
  8
LAYER_1
 40
0.1764
 41
0.1764
 62
3
 66
1
 10
0
 20
0
 30
0
  0
VERTEX
  8
LAYER_1
 10
33.3948
 20
-129.803
  0
VERTEX
  8
LAYER_1
 10
33.3948
 20
-127.8041
  0
SEQEND
  0
POLYLINE
  8
LAYER_1
 40
0.1764
 41
0.1764
 62
3
 66
1
 10
0
 20
0
 30
0
  0
VERTEX
  8
LAYER_1
 10
33.3948
 20
-131.802
  0
VERTEX
  8
LAYER_1
 10
33.3948
 20
-129.803
  0
SEQEND
  0
POLYLINE
  8
LAYER_1
 40
0.1764
 41
0.1764
 62
3
 66
1
 10
0
 20
0
 30
0
  0
VERTEX
  8
LAYER_1
 10
33.3948
 20
-133.8009
  0
VERTEX
  8
LAYER_1
 10
33.3948
 20
-131.802
  0
SEQEND
  0
POLYLINE
  8
LAYER_1
 40
0.1764
 41
0.1764
 62
3
 66
1
 10
0
 20
0
 30
0
  0
VERTEX
  8
LAYER_1
 10
33.3948
 20
-121.8073
  0
VERTEX
  8
LAYER_1
 10
40.264
 20
-125.7713
  0
SEQEND
  0
POLYLINE
  8
LAYER_1
 40
0.1764
 41
0.1764
 62
3
 66
1
 10
0
 20
0
 30
0
  0
VERTEX
  8
LAYER_1
 10
33.3948
 20
-123.8062
  0
VERTEX
  8
LAYER_1
 10
40.0353
 20
-127.6431
  0
SEQEND
  0
POLYLINE
  8
LAYER_1
 40
0.1764
 41
0.1764
 62
3
 66
1
 10
0
 20
0
 30
0
  0
VERTEX
  8
LAYER_1
 10
33.3948
 20
-125.8051
  0
VERTEX
  8
LAYER_1
 10
39.9675
 20
-129.5997
  0
SEQEND
  0
POLYLINE
  8
LAYER_1
 40
0.1764
 41
0.1764
 62
3
 66
1
 10
0
 20
0
 30
0
  0
VERTEX
  8
LAYER_1
 10
40.3233
 20
-131.8019
  0
VERTEX
  8
LAYER_1
 10
40.3233
 20
-123.8062
  0
SEQEND
  0
POLYLINE
  8
LAYER_1
 40
0.1764
 41
0.1764
 62
3
 66
1
 10
0
 20
0
 30
0
  0
VERTEX
  8
LAYER_1
 10
39.8913
 20
-123.5606
  0
VERTEX
  8
LAYER_1
 10
40.3233
 20
-123.8062
  0
SEQEND
  0
POLYLINE
  8
LAYER_1
 40
0.1764
 41
0.1764
 62
3
 66
1
 10
0
 20
0
 30
0
  0
VERTEX
  8
LAYER_1
 10
40.0353
 20
-127.6431
  0
VERTEX
  8
LAYER_1
 10
40.3233
 20
-127.8041
  0
SEQEND
  0
POLYLINE
  8
LAYER_1
 40
0.1764
 41
0.1764
 62
3
 66
1
 10
0
 20
0
 30
0
  0
VERTEX
  8
LAYER_1
 10
39.9675
 20
-129.5997
  0
VERTEX
  8
LAYER_1
 10
40.3233
 20
-129.803
  0
SEQEND
  0
POLYLINE
  8
LAYER_1
 40
0.1764
 41
0.1764
 62
3
 66
1
 10
0
 20
0
 30
0
  0
VERTEX
  8
LAYER_1
 10
33.3948
 20
-135.8083
  0
VERTEX
  8
LAYER_1
 10
40.3233
 20
-131.8019
  0
SEQEND
  0
POLYLINE
  8
LAYER_1
 40
0.1764
 41
0.1764
 62
3
 66
1
 10
0
 20
0
 30
0
  0
VERTEX
  8
LAYER_1
 10
33.3948
 20
-127.8041
  0
VERTEX
  8
LAYER_1
 10
40.3233
 20
-131.8019
  0
SEQEND
  0
POLYLINE
  8
LAYER_1
 40
0.1764
 41
0.1764
 62
3
 66
1
 10
0
 20
0
 30
0
  0
VERTEX
  8
LAYER_1
 10
33.3948
 20
-129.803
  0
VERTEX
  8
LAYER_1
 10
35.1226
 20
-128.8035
  0
SEQEND
  0
POLYLINE
  8
LAYER_1
 40
0.1764
 41
0.1764
 62
3
 66
1
 10
0
 20
0
 30
0
  0
VERTEX
  8
LAYER_1
 10
33.3948
 20
-131.8019
  0
VERTEX
  8
LAYER_1
 10
36.859
 20
-129.803
  0
SEQEND
  0
POLYLINE
  8
LAYER_1
 40
0.1764
 41
0.1764
 62
3
 66
1
 10
0
 20
0
 30
0
  0
VERTEX
  8
LAYER_1
 10
33.3948
 20
-133.8008
  0
VERTEX
  8
LAYER_1
 10
38.5869
 20
-130.8024
  0
SEQEND
  0
ENDBLK
  0
BLOCK
  8
LAYER_1
  2
AIGNBL01020054
 70
64
 10
0
 20
0
 30
0
  3
AIGNBL01020054
  0
POLYLINE
  8
LAYER_1
 40
0.1764
 41
0.1764
 62
3
 66
1
 10
0
 20
0
 30
0
  0
VERTEX
  8
LAYER_1
 10
40.8614
 20
-148.3101
  0
VERTEX
  8
LAYER_1
 10
40.8614
 20
-132.3102
  0
VERTEX
  8
LAYER_1
 10
47.3579
 20
-136.0624
  0
SEQEND
  0
POLYLINE
  8
LAYER_1
 40
0.1764
 41
0.1764
 62
3
 66
1
 10
0
 20
0
 30
0
  0
VERTEX
  8
LAYER_1
 10
40.8614
 20
-134.3091
  0
VERTEX
  8
LAYER_1
 10
40.8614
 20
-132.3102
  0
SEQEND
  0
POLYLINE
  8
LAYER_1
 40
0.1764
 41
0.1764
 62
3
 66
1
 10
0
 20
0
 30
0
  0
VERTEX
  8
LAYER_1
 10
40.8614
 20
-136.3081
  0
VERTEX
  8
LAYER_1
 10
40.8614
 20
-134.3091
  0
SEQEND
  0
POLYLINE
  8
LAYER_1
 40
0.1764
 41
0.1764
 62
3
 66
1
 10
0
 20
0
 30
0
  0
VERTEX
  8
LAYER_1
 10
40.8614
 20
-138.307
  0
VERTEX
  8
LAYER_1
 10
40.8614
 20
-136.3081
  0
SEQEND
  0
POLYLINE
  8
LAYER_1
 40
0.1764
 41
0.1764
 62
3
 66
1
 10
0
 20
0
 30
0
  0
VERTEX
  8
LAYER_1
 10
40.8614
 20
-140.3059
  0
VERTEX
  8
LAYER_1
 10
40.8614
 20
-138.307
  0
SEQEND
  0
POLYLINE
  8
LAYER_1
 40
0.1764
 41
0.1764
 62
3
 66
1
 10
0
 20
0
 30
0
  0
VERTEX
  8
LAYER_1
 10
40.8614
 20
-142.3049
  0
VERTEX
  8
LAYER_1
 10
40.8614
 20
-140.3059
  0
SEQEND
  0
POLYLINE
  8
LAYER_1
 40
0.1764
 41
0.1764
 62
3
 66
1
 10
0
 20
0
 30
0
  0
VERTEX
  8
LAYER_1
 10
40.8614
 20
-144.3038
  0
VERTEX
  8
LAYER_1
 10
40.8614
 20
-142.3049
  0
SEQEND
  0
POLYLINE
  8
LAYER_1
 40
0.1764
 41
0.1764
 62
3
 66
1
 10
0
 20
0
 30
0
  0
VERTEX
  8
LAYER_1
 10
40.8614
 20
-146.3027
  0
VERTEX
  8
LAYER_1
 10
40.8614
 20
-144.3038
  0
SEQEND
  0
POLYLINE
  8
LAYER_1
 40
0.1764
 41
0.1764
 62
3
 66
1
 10
0
 20
0
 30
0
  0
VERTEX
  8
LAYER_1
 10
40.8614
 20
-134.3091
  0
VERTEX
  8
LAYER_1
 10
47.7306
 20
-138.2731
  0
SEQEND
  0
POLYLINE
  8
LAYER_1
 40
0.1764
 41
0.1764
 62
3
 66
1
 10
0
 20
0
 30
0
  0
VERTEX
  8
LAYER_1
 10
40.8614
 20
-136.308
  0
VERTEX
  8
LAYER_1
 10
47.5019
 20
-140.145
  0
SEQEND
  0
POLYLINE
  8
LAYER_1
 40
0.1764
 41
0.1764
 62
3
 66
1
 10
0
 20
0
 30
0
  0
VERTEX
  8
LAYER_1
 10
40.8614
 20
-138.307
  0
VERTEX
  8
LAYER_1
 10
47.4342
 20
-142.1016
  0
SEQEND
  0
POLYLINE
  8
LAYER_1
 40
0.1764
 41
0.1764
 62
3
 66
1
 10
0
 20
0
 30
0
  0
VERTEX
  8
LAYER_1
 10
47.7899
 20
-144.3038
  0
VERTEX
  8
LAYER_1
 10
47.7899
 20
-136.308
  0
SEQEND
  0
POLYLINE
  8
LAYER_1
 40
0.1764
 41
0.1764
 62
3
 66
1
 10
0
 20
0
 30
0
  0
VERTEX
  8
LAYER_1
 10
47.3579
 20
-136.0624
  0
VERTEX
  8
LAYER_1
 10
47.7899
 20
-136.308
  0
SEQEND
  0
POLYLINE
  8
LAYER_1
 40
0.1764
 41
0.1764
 62
3
 66
1
 10
0
 20
0
 30
0
  0
VERTEX
  8
LAYER_1
 10
47.5019
 20
-140.145
  0
VERTEX
  8
LAYER_1
 10
47.7899
 20
-140.3059
  0
SEQEND
  0
POLYLINE
  8
LAYER_1
 40
0.1764
 41
0.1764
 62
3
 66
1
 10
0
 20
0
 30
0
  0
VERTEX
  8
LAYER_1
 10
47.4342
 20
-142.1016
  0
VERTEX
  8
LAYER_1
 10
47.7899
 20
-142.3048
  0
SEQEND
  0
POLYLINE
  8
LAYER_1
 40
0.1764
 41
0.1764
 62
3
 66
1
 10
0
 20
0
 30
0
  0
VERTEX
  8
LAYER_1
 10
40.8614
 20
-148.3101
  0
VERTEX
  8
LAYER_1
 10
47.7899
 20
-144.3038
  0
SEQEND
  0
POLYLINE
  8
LAYER_1
 40
0.1764
 41
0.1764
 62
3
 66
1
 10
0
 20
0
 30
0
  0
VERTEX
  8
LAYER_1
 10
40.8614
 20
-140.3059
  0
VERTEX
  8
LAYER_1
 10
47.7899
 20
-144.3038
  0
SEQEND
  0
POLYLINE
  8
LAYER_1
 40
0.1764
 41
0.1764
 62
3
 66
1
 10
0
 20
0
 30
0
  0
VERTEX
  8
LAYER_1
 10
40.8614
 20
-142.3048
  0
VERTEX
  8
LAYER_1
 10
42.5893
 20
-141.3054
  0
SEQEND
  0
POLYLINE
  8
LAYER_1
 40
0.1764
 41
0.1764
 62
3
 66
1
 10
0
 20
0
 30
0
  0
VERTEX
  8
LAYER_1
 10
40.8614
 20
-144.3038
  0
VERTEX
  8
LAYER_1
 10
44.3257
 20
-142.3048
  0
SEQEND
  0
POLYLINE
  8
LAYER_1
 40
0.1764
 41
0.1764
 62
3
 66
1
 10
0
 20
0
 30
0
  0
VERTEX
  8
LAYER_1
 10
40.8614
 20
-146.3027
  0
VERTEX
  8
LAYER_1
 10
46.0536
 20
-143.3043
  0
SEQEND
  0
ENDBLK
  0
BLOCK
  8
LAYER_1
  2
AIGNBL01020057
 70
64
 10
0
 20
0
 30
0
  3
AIGNBL01020057
  0
POLYLINE
  8
LAYER_1
 40
0.1764
 41
0.1764
 62
3
 66
1
 10
0
 20
0
 30
0
  0
VERTEX
  8
LAYER_1
 10
48.2899
 20
-135.8083
  0
VERTEX
  8
LAYER_1
 10
48.2899
 20
-119.8084
  0
VERTEX
  8
LAYER_1
 10
54.7865
 20
-123.5606
  0
SEQEND
  0
POLYLINE
  8
LAYER_1
 40
0.1764
 41
0.1764
 62
3
 66
1
 10
0
 20
0
 30
0
  0
VERTEX
  8
LAYER_1
 10
48.2899
 20
-121.8073
  0
VERTEX
  8
LAYER_1
 10
48.2899
 20
-119.8084
  0
SEQEND
  0
POLYLINE
  8
LAYER_1
 40
0.1764
 41
0.1764
 62
3
 66
1
 10
0
 20
0
 30
0
  0
VERTEX
  8
LAYER_1
 10
48.2899
 20
-123.8062
  0
VERTEX
  8
LAYER_1
 10
48.2899
 20
-121.8073
  0
SEQEND
  0
POLYLINE
  8
LAYER_1
 40
0.1764
 41
0.1764
 62
3
 66
1
 10
0
 20
0
 30
0
  0
VERTEX
  8
LAYER_1
 10
48.2899
 20
-125.8052
  0
VERTEX
  8
LAYER_1
 10
48.2899
 20
-123.8062
  0
SEQEND
  0
POLYLINE
  8
LAYER_1
 40
0.1764
 41
0.1764
 62
3
 66
1
 10
0
 20
0
 30
0
  0
VERTEX
  8
LAYER_1
 10
48.2899
 20
-127.8041
  0
VERTEX
  8
LAYER_1
 10
48.2899
 20
-125.8052
  0
SEQEND
  0
POLYLINE
  8
LAYER_1
 40
0.1764
 41
0.1764
 62
3
 66
1
 10
0
 20
0
 30
0
  0
VERTEX
  8
LAYER_1
 10
48.2899
 20
-129.803
  0
VERTEX
  8
LAYER_1
 10
48.2899
 20
-127.8041
  0
SEQEND
  0
POLYLINE
  8
LAYER_1
 40
0.1764
 41
0.1764
 62
3
 66
1
 10
0
 20
0
 30
0
  0
VERTEX
  8
LAYER_1
 10
48.2899
 20
-131.802
  0
VERTEX
  8
LAYER_1
 10
48.2899
 20
-129.803
  0
SEQEND
  0
POLYLINE
  8
LAYER_1
 40
0.1764
 41
0.1764
 62
3
 66
1
 10
0
 20
0
 30
0
  0
VERTEX
  8
LAYER_1
 10
48.2899
 20
-133.8009
  0
VERTEX
  8
LAYER_1
 10
48.2899
 20
-131.802
  0
SEQEND
  0
POLYLINE
  8
LAYER_1
 40
0.1764
 41
0.1764
 62
3
 66
1
 10
0
 20
0
 30
0
  0
VERTEX
  8
LAYER_1
 10
48.2899
 20
-121.8073
  0
VERTEX
  8
LAYER_1
 10
55.1591
 20
-125.7713
  0
SEQEND
  0
POLYLINE
  8
LAYER_1
 40
0.1764
 41
0.1764
 62
3
 66
1
 10
0
 20
0
 30
0
  0
VERTEX
  8
LAYER_1
 10
48.2899
 20
-123.8062
  0
VERTEX
  8
LAYER_1
 10
54.9304
 20
-127.6431
  0
SEQEND
  0
POLYLINE
  8
LAYER_1
 40
0.1764
 41
0.1764
 62
3
 66
1
 10
0
 20
0
 30
0
  0
VERTEX
  8
LAYER_1
 10
48.2899
 20
-125.8051
  0
VERTEX
  8
LAYER_1
 10
54.8627
 20
-129.5997
  0
SEQEND
  0
POLYLINE
  8
LAYER_1
 40
0.1764
 41
0.1764
 62
3
 66
1
 10
0
 20
0
 30
0
  0
VERTEX
  8
LAYER_1
 10
55.2184
 20
-131.8019
  0
VERTEX
  8
LAYER_1
 10
55.2184
 20
-123.8062
  0
SEQEND
  0
POLYLINE
  8
LAYER_1
 40
0.1764
 41
0.1764
 62
3
 66
1
 10
0
 20
0
 30
0
  0
VERTEX
  8
LAYER_1
 10
54.7865
 20
-123.5606
  0
VERTEX
  8
LAYER_1
 10
55.2184
 20
-123.8062
  0
SEQEND
  0
POLYLINE
  8
LAYER_1
 40
0.1764
 41
0.1764
 62
3
 66
1
 10
0
 20
0
 30
0
  0
VERTEX
  8
LAYER_1
 10
54.9304
 20
-127.6431
  0
VERTEX
  8
LAYER_1
 10
55.2184
 20
-127.8041
  0
SEQEND
  0
POLYLINE
  8
LAYER_1
 40
0.1764
 41
0.1764
 62
3
 66
1
 10
0
 20
0
 30
0
  0
VERTEX
  8
LAYER_1
 10
54.8627
 20
-129.5997
  0
VERTEX
  8
LAYER_1
 10
55.2184
 20
-129.803
  0
SEQEND
  0
POLYLINE
  8
LAYER_1
 40
0.1764
 41
0.1764
 62
3
 66
1
 10
0
 20
0
 30
0
  0
VERTEX
  8
LAYER_1
 10
48.2899
 20
-135.8083
  0
VERTEX
  8
LAYER_1
 10
55.2184
 20
-131.8019
  0
SEQEND
  0
POLYLINE
  8
LAYER_1
 40
0.1764
 41
0.1764
 62
3
 66
1
 10
0
 20
0
 30
0
  0
VERTEX
  8
LAYER_1
 10
48.2899
 20
-127.8041
  0
VERTEX
  8
LAYER_1
 10
55.2184
 20
-131.8019
  0
SEQEND
  0
POLYLINE
  8
LAYER_1
 40
0.1764
 41
0.1764
 62
3
 66
1
 10
0
 20
0
 30
0
  0
VERTEX
  8
LAYER_1
 10
48.2899
 20
-129.803
  0
VERTEX
  8
LAYER_1
 10
50.0178
 20
-128.8035
  0
SEQEND
  0
POLYLINE
  8
LAYER_1
 40
0.1764
 41
0.1764
 62
3
 66
1
 10
0
 20
0
 30
0
  0
VERTEX
  8
LAYER_1
 10
48.2899
 20
-131.8019
  0
VERTEX
  8
LAYER_1
 10
51.7542
 20
-129.803
  0
SEQEND
  0
POLYLINE
  8
LAYER_1
 40
0.1764
 41
0.1764
 62
3
 66
1
 10
0
 20
0
 30
0
  0
VERTEX
  8
LAYER_1
 10
48.2899
 20
-133.8008
  0
VERTEX
  8
LAYER_1
 10
53.4821
 20
-130.8024
  0
SEQEND
  0
ENDBLK
  0
BLOCK
  8
LAYER_1
  2
AIGNBL0102005A
 70
64
 10
0
 20
0
 30
0
  3
AIGNBL0102005A
  0
POLYLINE
  8
LAYER_1
 40
0.1764
 41
0.1764
 62
3
 66
1
 10
0
 20
0
 30
0
  0
VERTEX
  8
LAYER_1
 10
55.7566
 20
-148.3101
  0
VERTEX
  8
LAYER_1
 10
55.7566
 20
-132.3102
  0
VERTEX
  8
LAYER_1
 10
62.2531
 20
-136.0624
  0
SEQEND
  0
POLYLINE
  8
LAYER_1
 40
0.1764
 41
0.1764
 62
3
 66
1
 10
0
 20
0
 30
0
  0
VERTEX
  8
LAYER_1
 10
55.7566
 20
-134.3091
  0
VERTEX
  8
LAYER_1
 10
55.7566
 20
-132.3102
  0
SEQEND
  0
POLYLINE
  8
LAYER_1
 40
0.1764
 41
0.1764
 62
3
 66
1
 10
0
 20
0
 30
0
  0
VERTEX
  8
LAYER_1
 10
55.7566
 20
-136.3081
  0
VERTEX
  8
LAYER_1
 10
55.7566
 20
-134.3091
  0
SEQEND
  0
POLYLINE
  8
LAYER_1
 40
0.1764
 41
0.1764
 62
3
 66
1
 10
0
 20
0
 30
0
  0
VERTEX
  8
LAYER_1
 10
55.7566
 20
-138.307
  0
VERTEX
  8
LAYER_1
 10
55.7566
 20
-136.3081
  0
SEQEND
  0
POLYLINE
  8
LAYER_1
 40
0.1764
 41
0.1764
 62
3
 66
1
 10
0
 20
0
 30
0
  0
VERTEX
  8
LAYER_1
 10
55.7566
 20
-140.3059
  0
VERTEX
  8
LAYER_1
 10
55.7566
 20
-138.307
  0
SEQEND
  0
POLYLINE
  8
LAYER_1
 40
0.1764
 41
0.1764
 62
3
 66
1
 10
0
 20
0
 30
0
  0
VERTEX
  8
LAYER_1
 10
55.7566
 20
-142.3049
  0
VERTEX
  8
LAYER_1
 10
55.7566
 20
-140.3059
  0
SEQEND
  0
POLYLINE
  8
LAYER_1
 40
0.1764
 41
0.1764
 62
3
 66
1
 10
0
 20
0
 30
0
  0
VERTEX
  8
LAYER_1
 10
55.7566
 20
-144.3038
  0
VERTEX
  8
LAYER_1
 10
55.7566
 20
-142.3049
  0
SEQEND
  0
POLYLINE
  8
LAYER_1
 40
0.1764
 41
0.1764
 62
3
 66
1
 10
0
 20
0
 30
0
  0
VERTEX
  8
LAYER_1
 10
55.7566
 20
-146.3027
  0
VERTEX
  8
LAYER_1
 10
55.7566
 20
-144.3038
  0
SEQEND
  0
POLYLINE
  8
LAYER_1
 40
0.1764
 41
0.1764
 62
3
 66
1
 10
0
 20
0
 30
0
  0
VERTEX
  8
LAYER_1
 10
55.7566
 20
-134.3091
  0
VERTEX
  8
LAYER_1
 10
62.6258
 20
-138.2731
  0
SEQEND
  0
POLYLINE
  8
LAYER_1
 40
0.1764
 41
0.1764
 62
3
 66
1
 10
0
 20
0
 30
0
  0
VERTEX
  8
LAYER_1
 10
55.7566
 20
-136.308
  0
VERTEX
  8
LAYER_1
 10
62.3971
 20
-140.145
  0
SEQEND
  0
POLYLINE
  8
LAYER_1
 40
0.1764
 41
0.1764
 62
3
 66
1
 10
0
 20
0
 30
0
  0
VERTEX
  8
LAYER_1
 10
55.7566
 20
-138.307
  0
VERTEX
  8
LAYER_1
 10
62.3294
 20
-142.1016
  0
SEQEND
  0
POLYLINE
  8
LAYER_1
 40
0.1764
 41
0.1764
 62
3
 66
1
 10
0
 20
0
 30
0
  0
VERTEX
  8
LAYER_1
 10
62.6851
 20
-144.3038
  0
VERTEX
  8
LAYER_1
 10
62.6851
 20
-136.308
  0
SEQEND
  0
POLYLINE
  8
LAYER_1
 40
0.1764
 41
0.1764
 62
3
 66
1
 10
0
 20
0
 30
0
  0
VERTEX
  8
LAYER_1
 10
62.2531
 20
-136.0624
  0
VERTEX
  8
LAYER_1
 10
62.6851
 20
-136.308
  0
SEQEND
  0
POLYLINE
  8
LAYER_1
 40
0.1764
 41
0.1764
 62
3
 66
1
 10
0
 20
0
 30
0
  0
VERTEX
  8
LAYER_1
 10
62.3971
 20
-140.145
  0
VERTEX
  8
LAYER_1
 10
62.6851
 20
-140.3059
  0
SEQEND
  0
POLYLINE
  8
LAYER_1
 40
0.1764
 41
0.1764
 62
3
 66
1
 10
0
 20
0
 30
0
  0
VERTEX
  8
LAYER_1
 10
62.3294
 20
-142.1016
  0
VERTEX
  8
LAYER_1
 10
62.6851
 20
-142.3048
  0
SEQEND
  0
POLYLINE
  8
LAYER_1
 40
0.1764
 41
0.1764
 62
3
 66
1
 10
0
 20
0
 30
0
  0
VERTEX
  8
LAYER_1
 10
55.7566
 20
-148.3101
  0
VERTEX
  8
LAYER_1
 10
62.6851
 20
-144.3038
  0
SEQEND
  0
POLYLINE
  8
LAYER_1
 40
0.1764
 41
0.1764
 62
3
 66
1
 10
0
 20
0
 30
0
  0
VERTEX
  8
LAYER_1
 10
55.7566
 20
-140.3059
  0
VERTEX
  8
LAYER_1
 10
62.6851
 20
-144.3038
  0
SEQEND
  0
POLYLINE
  8
LAYER_1
 40
0.1764
 41
0.1764
 62
3
 66
1
 10
0
 20
0
 30
0
  0
VERTEX
  8
LAYER_1
 10
55.7566
 20
-142.3048
  0
VERTEX
  8
LAYER_1
 10
57.4845
 20
-141.3054
  0
SEQEND
  0
POLYLINE
  8
LAYER_1
 40
0.1764
 41
0.1764
 62
3
 66
1
 10
0
 20
0
 30
0
  0
VERTEX
  8
LAYER_1
 10
55.7566
 20
-144.3038
  0
VERTEX
  8
LAYER_1
 10
59.2208
 20
-142.3048
  0
SEQEND
  0
POLYLINE
  8
LAYER_1
 40
0.1764
 41
0.1764
 62
3
 66
1
 10
0
 20
0
 30
0
  0
VERTEX
  8
LAYER_1
 10
55.7566
 20
-146.3027
  0
VERTEX
  8
LAYER_1
 10
60.9487
 20
-143.3043
  0
SEQEND
  0
ENDBLK
  0
BLOCK
  8
LAYER_1
  2
AIGNBL0102005D
 70
64
 10
0
 20
0
 30
0
  3
AIGNBL0102005D
  0
POLYLINE
  8
LAYER_1
 40
0.1764
 41
0.1764
 62
3
 66
1
 10
0
 20
0
 30
0
  0
VERTEX
  8
LAYER_1
 10
2.2873
 20
-222.9382
  0
VERTEX
  8
LAYER_1
 10
-19.2954
 20
-222.9382
  0
VERTEX
  8
LAYER_1
 10
-14.2339
 20
-214.175
  0
SEQEND
  0
POLYLINE
  8
LAYER_1
 40
0.1764
 41
0.1764
 62
3
 66
1
 10
0
 20
0
 30
0
  0
VERTEX
  8
LAYER_1
 10
-16.599
 20
-222.9382
  0
VERTEX
  8
LAYER_1
 10
-19.2954
 20
-222.9382
  0
SEQEND
  0
POLYLINE
  8
LAYER_1
 40
0.1764
 41
0.1764
 62
3
 66
1
 10
0
 20
0
 30
0
  0
VERTEX
  8
LAYER_1
 10
-13.9026
 20
-222.9382
  0
VERTEX
  8
LAYER_1
 10
-16.599
 20
-222.9382
  0
SEQEND
  0
POLYLINE
  8
LAYER_1
 40
0.1764
 41
0.1764
 62
3
 66
1
 10
0
 20
0
 30
0
  0
VERTEX
  8
LAYER_1
 10
-11.2062
 20
-222.9382
  0
VERTEX
  8
LAYER_1
 10
-13.9026
 20
-222.9382
  0
SEQEND
  0
POLYLINE
  8
LAYER_1
 40
0.1764
 41
0.1764
 62
3
 66
1
 10
0
 20
0
 30
0
  0
VERTEX
  8
LAYER_1
 10
-8.5098
 20
-222.9382
  0
VERTEX
  8
LAYER_1
 10
-11.2062
 20
-222.9382
  0
SEQEND
  0
POLYLINE
  8
LAYER_1
 40
0.1764
 41
0.1764
 62
3
 66
1
 10
0
 20
0
 30
0
  0
VERTEX
  8
LAYER_1
 10
-5.8134
 20
-222.9382
  0
VERTEX
  8
LAYER_1
 10
-8.5098
 20
-222.9382
  0
SEQEND
  0
POLYLINE
  8
LAYER_1
 40
0.1764
 41
0.1764
 62
3
 66
1
 10
0
 20
0
 30
0
  0
VERTEX
  8
LAYER_1
 10
-3.117
 20
-222.9382
  0
VERTEX
  8
LAYER_1
 10
-5.8134
 20
-222.9382
  0
SEQEND
  0
POLYLINE
  8
LAYER_1
 40
0.1764
 41
0.1764
 62
3
 66
1
 10
0
 20
0
 30
0
  0
VERTEX
  8
LAYER_1
 10
-0.4206
 20
-222.9382
  0
VERTEX
  8
LAYER_1
 10
-3.117
 20
-222.9382
  0
SEQEND
  0
POLYLINE
  8
LAYER_1
 40
0.1764
 41
0.1764
 62
3
 66
1
 10
0
 20
0
 30
0
  0
VERTEX
  8
LAYER_1
 10
-16.599
 20
-222.9382
  0
VERTEX
  8
LAYER_1
 10
-11.2519
 20
-213.6722
  0
SEQEND
  0
POLYLINE
  8
LAYER_1
 40
0.1764
 41
0.1764
 62
3
 66
1
 10
0
 20
0
 30
0
  0
VERTEX
  8
LAYER_1
 10
-13.9026
 20
-222.9382
  0
VERTEX
  8
LAYER_1
 10
-8.7269
 20
-213.9807
  0
SEQEND
  0
POLYLINE
  8
LAYER_1
 40
0.1764
 41
0.1764
 62
3
 66
1
 10
0
 20
0
 30
0
  0
VERTEX
  8
LAYER_1
 10
-11.2062
 20
-222.9382
  0
VERTEX
  8
LAYER_1
 10
-6.0876
 20
-214.0721
  0
SEQEND
  0
POLYLINE
  8
LAYER_1
 40
0.1764
 41
0.1764
 62
3
 66
1
 10
0
 20
0
 30
0
  0
VERTEX
  8
LAYER_1
 10
-3.117
 20
-213.5923
  0
VERTEX
  8
LAYER_1
 10
-13.9026
 20
-213.5923
  0
SEQEND
  0
POLYLINE
  8
LAYER_1
 40
0.1764
 41
0.1764
 62
3
 66
1
 10
0
 20
0
 30
0
  0
VERTEX
  8
LAYER_1
 10
-14.2339
 20
-214.175
  0
VERTEX
  8
LAYER_1
 10
-13.9026
 20
-213.5923
  0
SEQEND
  0
POLYLINE
  8
LAYER_1
 40
0.1764
 41
0.1764
 62
3
 66
1
 10
0
 20
0
 30
0
  0
VERTEX
  8
LAYER_1
 10
-8.7269
 20
-213.9807
  0
VERTEX
  8
LAYER_1
 10
-8.5098
 20
-213.5923
  0
SEQEND
  0
POLYLINE
  8
LAYER_1
 40
0.1764
 41
0.1764
 62
3
 66
1
 10
0
 20
0
 30
0
  0
VERTEX
  8
LAYER_1
 10
-6.0876
 20
-214.0721
  0
VERTEX
  8
LAYER_1
 10
-5.8134
 20
-213.5922
  0
SEQEND
  0
POLYLINE
  8
LAYER_1
 40
0.1764
 41
0.1764
 62
3
 66
1
 10
0
 20
0
 30
0
  0
VERTEX
  8
LAYER_1
 10
2.2872
 20
-222.9382
  0
VERTEX
  8
LAYER_1
 10
-3.117
 20
-213.5922
  0
SEQEND
  0
POLYLINE
  8
LAYER_1
 40
0.1764
 41
0.1764
 62
3
 66
1
 10
0
 20
0
 30
0
  0
VERTEX
  8
LAYER_1
 10
-8.5098
 20
-222.9382
  0
VERTEX
  8
LAYER_1
 10
-3.117
 20
-213.5922
  0
SEQEND
  0
POLYLINE
  8
LAYER_1
 40
0.1764
 41
0.1764
 62
3
 66
1
 10
0
 20
0
 30
0
  0
VERTEX
  8
LAYER_1
 10
-5.8134
 20
-222.9382
  0
VERTEX
  8
LAYER_1
 10
-7.1616
 20
-220.6075
  0
SEQEND
  0
POLYLINE
  8
LAYER_1
 40
0.1764
 41
0.1764
 62
3
 66
1
 10
0
 20
0
 30
0
  0
VERTEX
  8
LAYER_1
 10
-3.117
 20
-222.9382
  0
VERTEX
  8
LAYER_1
 10
-5.8134
 20
-218.2652
  0
SEQEND
  0
POLYLINE
  8
LAYER_1
 40
0.1764
 41
0.1764
 62
3
 66
1
 10
0
 20
0
 30
0
  0
VERTEX
  8
LAYER_1
 10
-0.4206
 20
-222.9382
  0
VERTEX
  8
LAYER_1
 10
-4.4652
 20
-215.9345
  0
SEQEND
  0
ENDBLK
  0
BLOCK
  8
LAYER_1
  2
AIGNBL01020060
 70
64
 10
0
 20
0
 30
0
  3
AIGNBL01020060
  0
POLYLINE
  8
LAYER_1
 40
0.05
 41
0.05
 66
1
 10
0
 20
0
 30
0
  0
VERTEX
  8
LAYER_1
 10
-13.701
 20
-238.8858
 42
-0.1252285792
  0
VERTEX
  8
LAYER_1
 10
-13.534
 20
-238.3025
 42
-0.2650428599
  0
VERTEX
  8
LAYER_1
 10
-12.6144
 20
-237.7916
 42
-0.2839090371
  0
VERTEX
  8
LAYER_1
 10
-11.7178
 20
-238.354
 42
-0.1042463024
  0
VERTEX
  8
LAYER_1
 10
-11.5746
 20
-238.8858
  0
VERTEX
  8
LAYER_1
 10
-13.701
 20
-238.8858
  0
SEQEND
  0
POLYLINE
  8
LAYER_1
 40
0.05
 41
0.05
 66
1
 10
0
 20
0
 30
0
 70
1
  0
VERTEX
  8
LAYER_1
 10
-10.6635
 20
-239.4861
 42
0.1775305336
  0
VERTEX
  8
LAYER_1
 10
-11.0308
 20
-237.9007
 42
0.2464913252
  0
VERTEX
  8
LAYER_1
 10
-12.6144
 20
-237.0726
 42
0.1951403994
  0
VERTEX
  8
LAYER_1
 10
-13.9735
 20
-237.6148
 42
0.09656579056
  0
VERTEX
  8
LAYER_1
 10
-14.4176
 20
-238.2744
 42
0.1015142513
  0
VERTEX
  8
LAYER_1
 10
-14.6128
 20
-239.2546
 42
0.08390151779
  0
VERTEX
  8
LAYER_1
 10
-14.4704
 20
-240.1552
 42
0.09891570241
  0
VERTEX
  8
LAYER_1
 10
-14.0869
 20
-240.8187
 42
0.105368816
  0
VERTEX
  8
LAYER_1
 10
-13.4985
 20
-241.2484
 42
0.1070957523
  0
VERTEX
  8
LAYER_1
 10
-12.5892
 20
-241.4298
 42
0.09362988012
  0
VERTEX
  8
LAYER_1
 10
-11.7953
 20
-241.285
 42
0.2070463542
  0
VERTEX
  8
LAYER_1
 10
-10.8046
 20
-240.3036
 42
0.04083588945
  0
VERTEX
  8
LAYER_1
 10
-10.7194
 20
-240.0218
  0
VERTEX
  8
LAYER_1
 10
-11.5837
 20
-240.0218
 42
-0.1368131602
  0
VERTEX
  8
LAYER_1
 10
-11.8884
 20
-240.4903
 42
-0.1839085751
  0
VERTEX
  8
LAYER_1
 10
-12.5892
 20
-240.7088
 42
-0.1304590533
  0
VERTEX
  8
LAYER_1
 10
-13.1593
 20
-240.57
 42
-0.1421384483
  0
VERTEX
  8
LAYER_1
 10
-13.543
 20
-240.1701
 42
-0.1231386085
  0
VERTEX
  8
LAYER_1
 10
-13.701
 20
-239.4861
  0
SEQEND
  0
ENDBLK
  0
BLOCK
  8
LAYER_1
  2
AIGNBL01020061
 70
64
 10
0
 20
0
 30
0
  3
AIGNBL01020061
  0
POLYLINE
  8
LAYER_1
 40
0.05
 41
0.05
 66
1
 10
0
 20
0
 30
0
  0
VERTEX
  8
LAYER_1
 10
-4.9423
 20
-239.9265
 42
-0.1722173616
  0
VERTEX
  8
LAYER_1
 10
-5.0849
 20
-240.3454
 42
-0.143165264
  0
VERTEX
  8
LAYER_1
 10
-5.5297
 20
-240.6361
 42
-0.08017556276
  0
VERTEX
  8
LAYER_1
 10
-5.9664
 20
-240.7088
 42
-0.1240040434
  0
VERTEX
  8
LAYER_1
 10
-6.5596
 20
-240.5698
 42
-0.2721004787
  0
VERTEX
  8
LAYER_1
 10
-6.8054
 20
-240.1812
 42
-0.3817706385
  0
VERTEX
  8
LAYER_1
 10
-6.2322
 20
-239.5287
 42
-0.03087035348
  0
VERTEX
  8
LAYER_1
 10
-6.0615
 20
-239.4943
 42
0.1200909403
  0
VERTEX
  8
LAYER_1
 10
-4.9423
 20
-239.2462
  0
VERTEX
  8
LAYER_1
 10
-4.9423
 20
-239.9265
  0
SEQEND
  0
POLYLINE
  8
LAYER_1
 40
0.05
 41
0.05
 66
1
 10
0
 20
0
 30
0
 70
1
  0
VERTEX
  8
LAYER_1
 10
-4.031
 20
-238.271
 42
0.275676913
  0
VERTEX
  8
LAYER_1
 10
-4.5859
 20
-237.3275
 42
0.13367934
  0
VERTEX
  8
LAYER_1
 10
-5.6856
 20
-237.0726
 42
0.0814270283
  0
VERTEX
  8
LAYER_1
 10
-6.6072
 20
-237.2071
 42
0.1155565896
  0
VERTEX
  8
LAYER_1
 10
-7.1951
 20
-237.5579
 42
0.1899787983
  0
VERTEX
  8
LAYER_1
 10
-7.5652
 20
-238.4461
  0
VERTEX
  8
LAYER_1
 10
-6.6525
 20
-238.4461
 42
-0.3552686633
  0
VERTEX
  8
LAYER_1
 10
-6.0437
 20
-237.8195
 42
-0.0624420422
  0
VERTEX
  8
LAYER_1
 10
-5.7419
 20
-237.7916
 42
-0.1259254201
  0
VERTEX
  8
LAYER_1
 10
-5.1379
 20
-237.9138
 42
-0.2833148189
  0
VERTEX
  8
LAYER_1
 10
-4.8864
 20
-238.3503
 42
-0.2208801714
  0
VERTEX
  8
LAYER_1
 10
-5.0133
 20
-238.6759
 42
-0.15232949
  0
VERTEX
  8
LAYER_1
 10
-5.5607
 20
-238.8553
 42
-0.02228576656
  0
VERTEX
  8
LAYER_1
 10
-6.1267
 20
-238.9336
 42
0.08179464813
  0
VERTEX
  8
LAYER_1
 10
-7.0753
 20
-239.1536
 42
0.3126172455
  0
VERTEX
  8
LAYER_1
 10
-7.7154
 20
-240.2224
 42
0.2635342396
  0
VERTEX
  8
LAYER_1
 10
-7.1722
 20
-241.2075
 42
0.1373672704
  0
VERTEX
  8
LAYER_1
 10
-6.301
 20
-241.4298
 42
0.08833346482
  0
VERTEX
  8
LAYER_1
 10
-5.4441
 20
-241.2766
 42
0.1043811603
  0
VERTEX
  8
LAYER_1
 10
-4.8708
 20
-240.9244
 42
0.4001185024
  0
VERTEX
  8
LAYER_1
 10
-4.1672
 20
-241.4298
 42
0.06953389779
  0
VERTEX
  8
LAYER_1
 10
-3.5917
 20
-241.3239
  0
VERTEX
  8
LAYER_1
 10
-3.5917
 20
-240.6931
  0
VERTEX
  8
LAYER_1
 10
-3.815
 20
-240.7088
 42
-0.3598489854
  0
VERTEX
  8
LAYER_1
 10
-4.0088
 20
-240.588
 42
-0.1611211949
  0
VERTEX
  8
LAYER_1
 10
-4.031
 20
-240.3965
  0
SEQEND
  0
ENDBLK
  0
BLOCK
  8
LAYER_1
  2
AIGNBL01020062
 70
64
 10
0
 20
0
 30
0
  3
AIGNBL01020062
  0
POLYLINE
  8
LAYER_1
 40
0.05
 41
0.05
 66
1
 10
0
 20
0
 30
0
  0
VERTEX
  8
LAYER_1
 10
2.9975
 20
-237.1841
  0
VERTEX
  8
LAYER_1
 10
3.9095
 20
-237.1841
  0
VERTEX
  8
LAYER_1
 10
3.9095
 20
-241.3163
  0
VERTEX
  8
LAYER_1
 10
2.9975
 20
-241.3163
  0
VERTEX
  8
LAYER_1
 10
2.9975
 20
-237.1841
  0
SEQEND
  0
POLYLINE
  8
LAYER_1
 40
0.05
 41
0.05
 66
1
 10
0
 20
0
 30
0
 70
1
  0
VERTEX
  8
LAYER_1
 10
2.9975
 20
-235.6088
  0
VERTEX
  8
LAYER_1
 10
3.9095
 20
-235.6088
  0
VERTEX
  8
LAYER_1
 10
3.9095
 20
-236.4712
  0
VERTEX
  8
LAYER_1
 10
2.9975
 20
-236.4712
  0
SEQEND
  0
ENDBLK
  0
BLOCK
  8
LAYER_1
  2
AIGNBL01010002
 70
64
 10
0
 20
0
 30
0
  3
AIGNBL01010002
  0
INSERT
  8
LAYER_1
  2
AIGNBL01020003
 10
0
 20
0
 30
0
  0
TEXT
  8
LAYER_1
 10
-9.2084
 20
-76.1194
 11
-9.2084
 21
-76.1194
 40
4.1737
 41
0.5
 50
270
  1
A
  0
ENDBLK
  0
BLOCK
  8
LAYER_1
  2
AIGNBL01010004
 70
64
 10
0
 20
0
 30
0
  3
AIGNBL01010004
  0
POLYLINE
  8
LAYER_1
 40
0.1764
 41
0.1764
 62
1
 66
1
 10
0
 20
0
 30
0
  0
VERTEX
  8
LAYER_1
 10
3.1044
 20
-85.8167
  0
VERTEX
  8
LAYER_1
 10
3.1044
 20
-69.8168
  0
VERTEX
  8
LAYER_1
 10
-3.3921
 20
-73.569
  0
SEQEND
  0
POLYLINE
  8
LAYER_1
 40
0.1764
 41
0.1764
 62
1
 66
1
 10
0
 20
0
 30
0
  0
VERTEX
  8
LAYER_1
 10
3.1044
 20
-71.8157
  0
VERTEX
  8
LAYER_1
 10
3.1044
 20
-69.8168
  0
SEQEND
  0
POLYLINE
  8
LAYER_1
 40
0.1764
 41
0.1764
 62
1
 66
1
 10
0
 20
0
 30
0
  0
VERTEX
  8
LAYER_1
 10
3.1044
 20
-73.8146
  0
VERTEX
  8
LAYER_1
 10
3.1044
 20
-71.8157
  0
SEQEND
  0
POLYLINE
  8
LAYER_1
 40
0.1764
 41
0.1764
 62
1
 66
1
 10
0
 20
0
 30
0
  0
VERTEX
  8
LAYER_1
 10
3.1044
 20
-75.8136
  0
VERTEX
  8
LAYER_1
 10
3.1044
 20
-73.8146
  0
SEQEND
  0
POLYLINE
  8
LAYER_1
 40
0.1764
 41
0.1764
 62
1
 66
1
 10
0
 20
0
 30
0
  0
VERTEX
  8
LAYER_1
 10
3.1044
 20
-77.8125
  0
VERTEX
  8
LAYER_1
 10
3.1044
 20
-75.8136
  0
SEQEND
  0
POLYLINE
  8
LAYER_1
 40
0.1764
 41
0.1764
 62
1
 66
1
 10
0
 20
0
 30
0
  0
VERTEX
  8
LAYER_1
 10
3.1044
 20
-79.8114
  0
VERTEX
  8
LAYER_1
 10
3.1044
 20
-77.8125
  0
SEQEND
  0
POLYLINE
  8
LAYER_1
 40
0.1764
 41
0.1764
 62
1
 66
1
 10
0
 20
0
 30
0
  0
VERTEX
  8
LAYER_1
 10
3.1044
 20
-81.8104
  0
VERTEX
  8
LAYER_1
 10
3.1044
 20
-79.8114
  0
SEQEND
  0
POLYLINE
  8
LAYER_1
 40
0.1764
 41
0.1764
 62
1
 66
1
 10
0
 20
0
 30
0
  0
VERTEX
  8
LAYER_1
 10
3.1044
 20
-83.8093
  0
VERTEX
  8
LAYER_1
 10
3.1044
 20
-81.8104
  0
SEQEND
  0
POLYLINE
  8
LAYER_1
 40
0.1764
 41
0.1764
 62
1
 66
1
 10
0
 20
0
 30
0
  0
VERTEX
  8
LAYER_1
 10
3.1044
 20
-71.8157
  0
VERTEX
  8
LAYER_1
 10
-3.7648
 20
-75.7797
  0
SEQEND
  0
POLYLINE
  8
LAYER_1
 40
0.1764
 41
0.1764
 62
1
 66
1
 10
0
 20
0
 30
0
  0
VERTEX
  8
LAYER_1
 10
3.1044
 20
-73.8146
  0
VERTEX
  8
LAYER_1
 10
-3.5361
 20
-77.6515
  0
SEQEND
  0
POLYLINE
  8
LAYER_1
 40
0.1764
 41
0.1764
 62
1
 66
1
 10
0
 20
0
 30
0
  0
VERTEX
  8
LAYER_1
 10
3.1044
 20
-75.8135
  0
VERTEX
  8
LAYER_1
 10
-3.4684
 20
-79.6081
  0
SEQEND
  0
POLYLINE
  8
LAYER_1
 40
0.1764
 41
0.1764
 62
1
 66
1
 10
0
 20
0
 30
0
  0
VERTEX
  8
LAYER_1
 10
-3.8241
 20
-81.8103
  0
VERTEX
  8
LAYER_1
 10
-3.8241
 20
-73.8146
  0
SEQEND
  0
POLYLINE
  8
LAYER_1
 40
0.1764
 41
0.1764
 62
1
 66
1
 10
0
 20
0
 30
0
  0
VERTEX
  8
LAYER_1
 10
-3.3921
 20
-73.569
  0
VERTEX
  8
LAYER_1
 10
-3.8241
 20
-73.8146
  0
SEQEND
  0
POLYLINE
  8
LAYER_1
 40
0.1764
 41
0.1764
 62
1
 66
1
 10
0
 20
0
 30
0
  0
VERTEX
  8
LAYER_1
 10
-3.5361
 20
-77.6515
  0
VERTEX
  8
LAYER_1
 10
-3.8241
 20
-77.8125
  0
SEQEND
  0
POLYLINE
  8
LAYER_1
 40
0.1764
 41
0.1764
 62
1
 66
1
 10
0
 20
0
 30
0
  0
VERTEX
  8
LAYER_1
 10
-3.4684
 20
-79.6081
  0
VERTEX
  8
LAYER_1
 10
-3.8241
 20
-79.8114
  0
SEQEND
  0
POLYLINE
  8
LAYER_1
 40
0.1764
 41
0.1764
 62
1
 66
1
 10
0
 20
0
 30
0
  0
VERTEX
  8
LAYER_1
 10
3.1044
 20
-85.8167
  0
VERTEX
  8
LAYER_1
 10
-3.8241
 20
-81.8103
  0
SEQEND
  0
POLYLINE
  8
LAYER_1
 40
0.1764
 41
0.1764
 62
1
 66
1
 10
0
 20
0
 30
0
  0
VERTEX
  8
LAYER_1
 10
3.1044
 20
-77.8125
  0
VERTEX
  8
LAYER_1
 10
-3.8241
 20
-81.8103
  0
SEQEND
  0
POLYLINE
  8
LAYER_1
 40
0.1764
 41
0.1764
 62
1
 66
1
 10
0
 20
0
 30
0
  0
VERTEX
  8
LAYER_1
 10
3.1044
 20
-79.8114
  0
VERTEX
  8
LAYER_1
 10
1.3765
 20
-78.8119
  0
SEQEND
  0
POLYLINE
  8
LAYER_1
 40
0.1764
 41
0.1764
 62
1
 66
1
 10
0
 20
0
 30
0
  0
VERTEX
  8
LAYER_1
 10
3.1044
 20
-81.8103
  0
VERTEX
  8
LAYER_1
 10
-0.3598
 20
-79.8114
  0
SEQEND
  0
POLYLINE
  8
LAYER_1
 40
0.1764
 41
0.1764
 62
1
 66
1
 10
0
 20
0
 30
0
  0
VERTEX
  8
LAYER_1
 10
3.1044
 20
-83.8092
  0
VERTEX
  8
LAYER_1
 10
-2.0877
 20
-80.8108
  0
SEQEND
  0
TEXT
  8
LAYER_1
 10
1.2281
 20
-78.625
 11
1.2281
 21
-78.625
 40
4.1737
 41
0.5
 50
89.99999999
  1
B
  0
ENDBLK
  0
BLOCK
  8
LAYER_1
  2
AIGNBL01010005
 70
64
 10
0
 20
0
 30
0
  3
AIGNBL01010005
  0
INSERT
  8
LAYER_1
  2
AIGNBL01020006
 10
0
 20
0
 30
0
  0
TEXT
  8
LAYER_1
 10
-1.7422
 20
-88.6212
 11
-1.7422
 21
-88.6212
 40
4.1737
 41
0.5
 50
270
  1
A
  0
ENDBLK
  0
BLOCK
  8
LAYER_1
  2
AIGNBL01010007
 70
64
 10
0
 20
0
 30
0
  3
AIGNBL01010007
  0
POLYLINE
  8
LAYER_1
 40
0.1764
 41
0.1764
 62
1
 66
1
 10
0
 20
0
 30
0
  0
VERTEX
  8
LAYER_1
 10
-4.3241
 20
-98.319
  0
VERTEX
  8
LAYER_1
 10
-4.3241
 20
-82.319
  0
VERTEX
  8
LAYER_1
 10
-10.8206
 20
-86.0713
  0
SEQEND
  0
POLYLINE
  8
LAYER_1
 40
0.1764
 41
0.1764
 62
1
 66
1
 10
0
 20
0
 30
0
  0
VERTEX
  8
LAYER_1
 10
-4.3241
 20
-84.318
  0
VERTEX
  8
LAYER_1
 10
-4.3241
 20
-82.319
  0
SEQEND
  0
POLYLINE
  8
LAYER_1
 40
0.1764
 41
0.1764
 62
1
 66
1
 10
0
 20
0
 30
0
  0
VERTEX
  8
LAYER_1
 10
-4.3241
 20
-86.3169
  0
VERTEX
  8
LAYER_1
 10
-4.3241
 20
-84.318
  0
SEQEND
  0
POLYLINE
  8
LAYER_1
 40
0.1764
 41
0.1764
 62
1
 66
1
 10
0
 20
0
 30
0
  0
VERTEX
  8
LAYER_1
 10
-4.3241
 20
-88.3158
  0
VERTEX
  8
LAYER_1
 10
-4.3241
 20
-86.3169
  0
SEQEND
  0
POLYLINE
  8
LAYER_1
 40
0.1764
 41
0.1764
 62
1
 66
1
 10
0
 20
0
 30
0
  0
VERTEX
  8
LAYER_1
 10
-4.3241
 20
-90.3147
  0
VERTEX
  8
LAYER_1
 10
-4.3241
 20
-88.3158
  0
SEQEND
  0
POLYLINE
  8
LAYER_1
 40
0.1764
 41
0.1764
 62
1
 66
1
 10
0
 20
0
 30
0
  0
VERTEX
  8
LAYER_1
 10
-4.3241
 20
-92.3137
  0
VERTEX
  8
LAYER_1
 10
-4.3241
 20
-90.3147
  0
SEQEND
  0
POLYLINE
  8
LAYER_1
 40
0.1764
 41
0.1764
 62
1
 66
1
 10
0
 20
0
 30
0
  0
VERTEX
  8
LAYER_1
 10
-4.3241
 20
-94.3126
  0
VERTEX
  8
LAYER_1
 10
-4.3241
 20
-92.3137
  0
SEQEND
  0
POLYLINE
  8
LAYER_1
 40
0.1764
 41
0.1764
 62
1
 66
1
 10
0
 20
0
 30
0
  0
VERTEX
  8
LAYER_1
 10
-4.3241
 20
-96.3115
  0
VERTEX
  8
LAYER_1
 10
-4.3241
 20
-94.3126
  0
SEQEND
  0
POLYLINE
  8
LAYER_1
 40
0.1764
 41
0.1764
 62
1
 66
1
 10
0
 20
0
 30
0
  0
VERTEX
  8
LAYER_1
 10
-4.3241
 20
-84.3179
  0
VERTEX
  8
LAYER_1
 10
-11.1933
 20
-88.2819
  0
SEQEND
  0
POLYLINE
  8
LAYER_1
 40
0.1764
 41
0.1764
 62
1
 66
1
 10
0
 20
0
 30
0
  0
VERTEX
  8
LAYER_1
 10
-4.3241
 20
-86.3169
  0
VERTEX
  8
LAYER_1
 10
-10.9646
 20
-90.1538
  0
SEQEND
  0
POLYLINE
  8
LAYER_1
 40
0.1764
 41
0.1764
 62
1
 66
1
 10
0
 20
0
 30
0
  0
VERTEX
  8
LAYER_1
 10
-4.3241
 20
-88.3158
  0
VERTEX
  8
LAYER_1
 10
-10.8969
 20
-92.1104
  0
SEQEND
  0
POLYLINE
  8
LAYER_1
 40
0.1764
 41
0.1764
 62
1
 66
1
 10
0
 20
0
 30
0
  0
VERTEX
  8
LAYER_1
 10
-11.2526
 20
-94.3126
  0
VERTEX
  8
LAYER_1
 10
-11.2526
 20
-86.3169
  0
SEQEND
  0
POLYLINE
  8
LAYER_1
 40
0.1764
 41
0.1764
 62
1
 66
1
 10
0
 20
0
 30
0
  0
VERTEX
  8
LAYER_1
 10
-10.8206
 20
-86.0712
  0
VERTEX
  8
LAYER_1
 10
-11.2526
 20
-86.3169
  0
SEQEND
  0
POLYLINE
  8
LAYER_1
 40
0.1764
 41
0.1764
 62
1
 66
1
 10
0
 20
0
 30
0
  0
VERTEX
  8
LAYER_1
 10
-10.9646
 20
-90.1538
  0
VERTEX
  8
LAYER_1
 10
-11.2526
 20
-90.3147
  0
SEQEND
  0
POLYLINE
  8
LAYER_1
 40
0.1764
 41
0.1764
 62
1
 66
1
 10
0
 20
0
 30
0
  0
VERTEX
  8
LAYER_1
 10
-10.8969
 20
-92.1104
  0
VERTEX
  8
LAYER_1
 10
-11.2526
 20
-92.3137
  0
SEQEND
  0
POLYLINE
  8
LAYER_1
 40
0.1764
 41
0.1764
 62
1
 66
1
 10
0
 20
0
 30
0
  0
VERTEX
  8
LAYER_1
 10
-4.3241
 20
-98.3189
  0
VERTEX
  8
LAYER_1
 10
-11.2526
 20
-94.3126
  0
SEQEND
  0
POLYLINE
  8
LAYER_1
 40
0.1764
 41
0.1764
 62
1
 66
1
 10
0
 20
0
 30
0
  0
VERTEX
  8
LAYER_1
 10
-4.3241
 20
-90.3147
  0
VERTEX
  8
LAYER_1
 10
-11.2526
 20
-94.3126
  0
SEQEND
  0
POLYLINE
  8
LAYER_1
 40
0.1764
 41
0.1764
 62
1
 66
1
 10
0
 20
0
 30
0
  0
VERTEX
  8
LAYER_1
 10
-4.3241
 20
-92.3136
  0
VERTEX
  8
LAYER_1
 10
-6.052
 20
-91.3142
  0
SEQEND
  0
POLYLINE
  8
LAYER_1
 40
0.1764
 41
0.1764
 62
1
 66
1
 10
0
 20
0
 30
0
  0
VERTEX
  8
LAYER_1
 10
-4.3241
 20
-94.3126
  0
VERTEX
  8
LAYER_1
 10
-7.7884
 20
-92.3136
  0
SEQEND
  0
POLYLINE
  8
LAYER_1
 40
0.1764
 41
0.1764
 62
1
 66
1
 10
0
 20
0
 30
0
  0
VERTEX
  8
LAYER_1
 10
-4.3241
 20
-96.3115
  0
VERTEX
  8
LAYER_1
 10
-9.5162
 20
-93.3131
  0
SEQEND
  0
TEXT
  8
LAYER_1
 10
-6.2004
 20
-91.1273
 11
-6.2004
 21
-91.1273
 40
4.1737
 41
0.5
 50
89.99999999
  1
B
  0
ENDBLK
  0
BLOCK
  8
LAYER_1
  2
AIGNBL01010008
 70
64
 10
0
 20
0
 30
0
  3
AIGNBL01010008
  0
INSERT
  8
LAYER_1
  2
AIGNBL01020009
 10
0
 20
0
 30
0
  0
TEXT
  8
LAYER_1
 10
5.6868
 20
-76.1194
 11
5.6868
 21
-76.1194
 40
4.1737
 41
0.5
 50
270
  1
A
  0
ENDBLK
  0
BLOCK
  8
LAYER_1
  2
AIGNBL0101000A
 70
64
 10
0
 20
0
 30
0
  3
AIGNBL0101000A
  0
POLYLINE
  8
LAYER_1
 40
0.1764
 41
0.1764
 62
1
 66
1
 10
0
 20
0
 30
0
  0
VERTEX
  8
LAYER_1
 10
17.9996
 20
-85.8167
  0
VERTEX
  8
LAYER_1
 10
17.9996
 20
-69.8168
  0
VERTEX
  8
LAYER_1
 10
11.503
 20
-73.569
  0
SEQEND
  0
POLYLINE
  8
LAYER_1
 40
0.1764
 41
0.1764
 62
1
 66
1
 10
0
 20
0
 30
0
  0
VERTEX
  8
LAYER_1
 10
17.9996
 20
-71.8157
  0
VERTEX
  8
LAYER_1
 10
17.9996
 20
-69.8168
  0
SEQEND
  0
POLYLINE
  8
LAYER_1
 40
0.1764
 41
0.1764
 62
1
 66
1
 10
0
 20
0
 30
0
  0
VERTEX
  8
LAYER_1
 10
17.9996
 20
-73.8146
  0
VERTEX
  8
LAYER_1
 10
17.9996
 20
-71.8157
  0
SEQEND
  0
POLYLINE
  8
LAYER_1
 40
0.1764
 41
0.1764
 62
1
 66
1
 10
0
 20
0
 30
0
  0
VERTEX
  8
LAYER_1
 10
17.9996
 20
-75.8136
  0
VERTEX
  8
LAYER_1
 10
17.9996
 20
-73.8146
  0
SEQEND
  0
POLYLINE
  8
LAYER_1
 40
0.1764
 41
0.1764
 62
1
 66
1
 10
0
 20
0
 30
0
  0
VERTEX
  8
LAYER_1
 10
17.9996
 20
-77.8125
  0
VERTEX
  8
LAYER_1
 10
17.9996
 20
-75.8136
  0
SEQEND
  0
POLYLINE
  8
LAYER_1
 40
0.1764
 41
0.1764
 62
1
 66
1
 10
0
 20
0
 30
0
  0
VERTEX
  8
LAYER_1
 10
17.9996
 20
-79.8114
  0
VERTEX
  8
LAYER_1
 10
17.9996
 20
-77.8125
  0
SEQEND
  0
POLYLINE
  8
LAYER_1
 40
0.1764
 41
0.1764
 62
1
 66
1
 10
0
 20
0
 30
0
  0
VERTEX
  8
LAYER_1
 10
17.9996
 20
-81.8104
  0
VERTEX
  8
LAYER_1
 10
17.9996
 20
-79.8114
  0
SEQEND
  0
POLYLINE
  8
LAYER_1
 40
0.1764
 41
0.1764
 62
1
 66
1
 10
0
 20
0
 30
0
  0
VERTEX
  8
LAYER_1
 10
17.9996
 20
-83.8093
  0
VERTEX
  8
LAYER_1
 10
17.9996
 20
-81.8104
  0
SEQEND
  0
POLYLINE
  8
LAYER_1
 40
0.1764
 41
0.1764
 62
1
 66
1
 10
0
 20
0
 30
0
  0
VERTEX
  8
LAYER_1
 10
17.9996
 20
-71.8157
  0
VERTEX
  8
LAYER_1
 10
11.1304
 20
-75.7797
  0
SEQEND
  0
POLYLINE
  8
LAYER_1
 40
0.1764
 41
0.1764
 62
1
 66
1
 10
0
 20
0
 30
0
  0
VERTEX
  8
LAYER_1
 10
17.9996
 20
-73.8146
  0
VERTEX
  8
LAYER_1
 10
11.3591
 20
-77.6515
  0
SEQEND
  0
POLYLINE
  8
LAYER_1
 40
0.1764
 41
0.1764
 62
1
 66
1
 10
0
 20
0
 30
0
  0
VERTEX
  8
LAYER_1
 10
17.9996
 20
-75.8135
  0
VERTEX
  8
LAYER_1
 10
11.4268
 20
-79.6081
  0
SEQEND
  0
POLYLINE
  8
LAYER_1
 40
0.1764
 41
0.1764
 62
1
 66
1
 10
0
 20
0
 30
0
  0
VERTEX
  8
LAYER_1
 10
11.0711
 20
-81.8103
  0
VERTEX
  8
LAYER_1
 10
11.0711
 20
-73.8146
  0
SEQEND
  0
POLYLINE
  8
LAYER_1
 40
0.1764
 41
0.1764
 62
1
 66
1
 10
0
 20
0
 30
0
  0
VERTEX
  8
LAYER_1
 10
11.503
 20
-73.569
  0
VERTEX
  8
LAYER_1
 10
11.0711
 20
-73.8146
  0
SEQEND
  0
POLYLINE
  8
LAYER_1
 40
0.1764
 41
0.1764
 62
1
 66
1
 10
0
 20
0
 30
0
  0
VERTEX
  8
LAYER_1
 10
11.3591
 20
-77.6515
  0
VERTEX
  8
LAYER_1
 10
11.0711
 20
-77.8125
  0
SEQEND
  0
POLYLINE
  8
LAYER_1
 40
0.1764
 41
0.1764
 62
1
 66
1
 10
0
 20
0
 30
0
  0
VERTEX
  8
LAYER_1
 10
11.4268
 20
-79.6081
  0
VERTEX
  8
LAYER_1
 10
11.0711
 20
-79.8114
  0
SEQEND
  0
POLYLINE
  8
LAYER_1
 40
0.1764
 41
0.1764
 62
1
 66
1
 10
0
 20
0
 30
0
  0
VERTEX
  8
LAYER_1
 10
17.9996
 20
-85.8167
  0
VERTEX
  8
LAYER_1
 10
11.0711
 20
-81.8103
  0
SEQEND
  0
POLYLINE
  8
LAYER_1
 40
0.1764
 41
0.1764
 62
1
 66
1
 10
0
 20
0
 30
0
  0
VERTEX
  8
LAYER_1
 10
17.9996
 20
-77.8125
  0
VERTEX
  8
LAYER_1
 10
11.0711
 20
-81.8103
  0
SEQEND
  0
POLYLINE
  8
LAYER_1
 40
0.1764
 41
0.1764
 62
1
 66
1
 10
0
 20
0
 30
0
  0
VERTEX
  8
LAYER_1
 10
17.9996
 20
-79.8114
  0
VERTEX
  8
LAYER_1
 10
16.2717
 20
-78.8119
  0
SEQEND
  0
POLYLINE
  8
LAYER_1
 40
0.1764
 41
0.1764
 62
1
 66
1
 10
0
 20
0
 30
0
  0
VERTEX
  8
LAYER_1
 10
17.9996
 20
-81.8103
  0
VERTEX
  8
LAYER_1
 10
14.5353
 20
-79.8114
  0
SEQEND
  0
POLYLINE
  8
LAYER_1
 40
0.1764
 41
0.1764
 62
1
 66
1
 10
0
 20
0
 30
0
  0
VERTEX
  8
LAYER_1
 10
17.9996
 20
-83.8092
  0
VERTEX
  8
LAYER_1
 10
12.8074
 20
-80.8108
  0
SEQEND
  0
TEXT
  8
LAYER_1
 10
16.1233
 20
-78.625
 11
16.1233
 21
-78.625
 40
4.1737
 41
0.5
 50
89.99999999
  1
B
  0
ENDBLK
  0
BLOCK
  8
LAYER_1
  2
AIGNBL0101000B
 70
64
 10
0
 20
0
 30
0
  3
AIGNBL0101000B
  0
INSERT
  8
LAYER_1
  2
AIGNBL0102000C
 10
0
 20
0
 30
0
  0
TEXT
  8
LAYER_1
 10
13.153
 20
-88.6212
 11
13.153
 21
-88.6212
 40
4.1737
 41
0.5
 50
270
  1
A
  0
ENDBLK
  0
BLOCK
  8
LAYER_1
  2
AIGNBL0101000D
 70
64
 10
0
 20
0
 30
0
  3
AIGNBL0101000D
  0
POLYLINE
  8
LAYER_1
 40
0.1764
 41
0.1764
 62
1
 66
1
 10
0
 20
0
 30
0
  0
VERTEX
  8
LAYER_1
 10
10.5711
 20
-98.319
  0
VERTEX
  8
LAYER_1
 10
10.5711
 20
-82.319
  0
VERTEX
  8
LAYER_1
 10
4.0745
 20
-86.0713
  0
SEQEND
  0
POLYLINE
  8
LAYER_1
 40
0.1764
 41
0.1764
 62
1
 66
1
 10
0
 20
0
 30
0
  0
VERTEX
  8
LAYER_1
 10
10.5711
 20
-84.318
  0
VERTEX
  8
LAYER_1
 10
10.5711
 20
-82.319
  0
SEQEND
  0
POLYLINE
  8
LAYER_1
 40
0.1764
 41
0.1764
 62
1
 66
1
 10
0
 20
0
 30
0
  0
VERTEX
  8
LAYER_1
 10
10.5711
 20
-86.3169
  0
VERTEX
  8
LAYER_1
 10
10.5711
 20
-84.318
  0
SEQEND
  0
POLYLINE
  8
LAYER_1
 40
0.1764
 41
0.1764
 62
1
 66
1
 10
0
 20
0
 30
0
  0
VERTEX
  8
LAYER_1
 10
10.5711
 20
-88.3158
  0
VERTEX
  8
LAYER_1
 10
10.5711
 20
-86.3169
  0
SEQEND
  0
POLYLINE
  8
LAYER_1
 40
0.1764
 41
0.1764
 62
1
 66
1
 10
0
 20
0
 30
0
  0
VERTEX
  8
LAYER_1
 10
10.5711
 20
-90.3147
  0
VERTEX
  8
LAYER_1
 10
10.5711
 20
-88.3158
  0
SEQEND
  0
POLYLINE
  8
LAYER_1
 40
0.1764
 41
0.1764
 62
1
 66
1
 10
0
 20
0
 30
0
  0
VERTEX
  8
LAYER_1
 10
10.5711
 20
-92.3137
  0
VERTEX
  8
LAYER_1
 10
10.5711
 20
-90.3147
  0
SEQEND
  0
POLYLINE
  8
LAYER_1
 40
0.1764
 41
0.1764
 62
1
 66
1
 10
0
 20
0
 30
0
  0
VERTEX
  8
LAYER_1
 10
10.5711
 20
-94.3126
  0
VERTEX
  8
LAYER_1
 10
10.5711
 20
-92.3137
  0
SEQEND
  0
POLYLINE
  8
LAYER_1
 40
0.1764
 41
0.1764
 62
1
 66
1
 10
0
 20
0
 30
0
  0
VERTEX
  8
LAYER_1
 10
10.5711
 20
-96.3115
  0
VERTEX
  8
LAYER_1
 10
10.5711
 20
-94.3126
  0
SEQEND
  0
POLYLINE
  8
LAYER_1
 40
0.1764
 41
0.1764
 62
1
 66
1
 10
0
 20
0
 30
0
  0
VERTEX
  8
LAYER_1
 10
10.5711
 20
-84.3179
  0
VERTEX
  8
LAYER_1
 10
3.7019
 20
-88.2819
  0
SEQEND
  0
POLYLINE
  8
LAYER_1
 40
0.1764
 41
0.1764
 62
1
 66
1
 10
0
 20
0
 30
0
  0
VERTEX
  8
LAYER_1
 10
10.5711
 20
-86.3169
  0
VERTEX
  8
LAYER_1
 10
3.9306
 20
-90.1538
  0
SEQEND
  0
POLYLINE
  8
LAYER_1
 40
0.1764
 41
0.1764
 62
1
 66
1
 10
0
 20
0
 30
0
  0
VERTEX
  8
LAYER_1
 10
10.5711
 20
-88.3158
  0
VERTEX
  8
LAYER_1
 10
3.9983
 20
-92.1104
  0
SEQEND
  0
POLYLINE
  8
LAYER_1
 40
0.1764
 41
0.1764
 62
1
 66
1
 10
0
 20
0
 30
0
  0
VERTEX
  8
LAYER_1
 10
3.6426
 20
-94.3126
  0
VERTEX
  8
LAYER_1
 10
3.6426
 20
-86.3169
  0
SEQEND
  0
POLYLINE
  8
LAYER_1
 40
0.1764
 41
0.1764
 62
1
 66
1
 10
0
 20
0
 30
0
  0
VERTEX
  8
LAYER_1
 10
4.0745
 20
-86.0712
  0
VERTEX
  8
LAYER_1
 10
3.6426
 20
-86.3169
  0
SEQEND
  0
POLYLINE
  8
LAYER_1
 40
0.1764
 41
0.1764
 62
1
 66
1
 10
0
 20
0
 30
0
  0
VERTEX
  8
LAYER_1
 10
3.9306
 20
-90.1538
  0
VERTEX
  8
LAYER_1
 10
3.6426
 20
-90.3147
  0
SEQEND
  0
POLYLINE
  8
LAYER_1
 40
0.1764
 41
0.1764
 62
1
 66
1
 10
0
 20
0
 30
0
  0
VERTEX
  8
LAYER_1
 10
3.9983
 20
-92.1104
  0
VERTEX
  8
LAYER_1
 10
3.6426
 20
-92.3137
  0
SEQEND
  0
POLYLINE
  8
LAYER_1
 40
0.1764
 41
0.1764
 62
1
 66
1
 10
0
 20
0
 30
0
  0
VERTEX
  8
LAYER_1
 10
10.5711
 20
-98.3189
  0
VERTEX
  8
LAYER_1
 10
3.6426
 20
-94.3126
  0
SEQEND
  0
POLYLINE
  8
LAYER_1
 40
0.1764
 41
0.1764
 62
1
 66
1
 10
0
 20
0
 30
0
  0
VERTEX
  8
LAYER_1
 10
10.5711
 20
-90.3147
  0
VERTEX
  8
LAYER_1
 10
3.6426
 20
-94.3126
  0
SEQEND
  0
POLYLINE
  8
LAYER_1
 40
0.1764
 41
0.1764
 62
1
 66
1
 10
0
 20
0
 30
0
  0
VERTEX
  8
LAYER_1
 10
10.5711
 20
-92.3136
  0
VERTEX
  8
LAYER_1
 10
8.8432
 20
-91.3142
  0
SEQEND
  0
POLYLINE
  8
LAYER_1
 40
0.1764
 41
0.1764
 62
1
 66
1
 10
0
 20
0
 30
0
  0
VERTEX
  8
LAYER_1
 10
10.5711
 20
-94.3126
  0
VERTEX
  8
LAYER_1
 10
7.1068
 20
-92.3136
  0
SEQEND
  0
POLYLINE
  8
LAYER_1
 40
0.1764
 41
0.1764
 62
1
 66
1
 10
0
 20
0
 30
0
  0
VERTEX
  8
LAYER_1
 10
10.5711
 20
-96.3115
  0
VERTEX
  8
LAYER_1
 10
5.3789
 20
-93.3131
  0
SEQEND
  0
TEXT
  8
LAYER_1
 10
8.6947
 20
-91.1273
 11
8.6947
 21
-91.1273
 40
4.1737
 41
0.5
 50
89.99999999
  1
B
  0
ENDBLK
  0
BLOCK
  8
LAYER_1
  2
AIGNBL0101000E
 70
64
 10
0
 20
0
 30
0
  3
AIGNBL0101000E
  0
INSERT
  8
LAYER_1
  2
AIGNBL0102000F
 10
0
 20
0
 30
0
  0
TEXT
  8
LAYER_1
 10
20.582
 20
-76.1194
 11
20.582
 21
-76.1194
 40
4.1737
 41
0.5
 50
270
  1
A
  0
ENDBLK
  0
BLOCK
  8
LAYER_1
  2
AIGNBL01010010
 70
64
 10
0
 20
0
 30
0
  3
AIGNBL01010010
  0
POLYLINE
  8
LAYER_1
 40
0.1764
 41
0.1764
 62
1
 66
1
 10
0
 20
0
 30
0
  0
VERTEX
  8
LAYER_1
 10
32.8947
 20
-85.8167
  0
VERTEX
  8
LAYER_1
 10
32.8947
 20
-69.8168
  0
VERTEX
  8
LAYER_1
 10
26.3982
 20
-73.569
  0
SEQEND
  0
POLYLINE
  8
LAYER_1
 40
0.1764
 41
0.1764
 62
1
 66
1
 10
0
 20
0
 30
0
  0
VERTEX
  8
LAYER_1
 10
32.8947
 20
-71.8157
  0
VERTEX
  8
LAYER_1
 10
32.8947
 20
-69.8168
  0
SEQEND
  0
POLYLINE
  8
LAYER_1
 40
0.1764
 41
0.1764
 62
1
 66
1
 10
0
 20
0
 30
0
  0
VERTEX
  8
LAYER_1
 10
32.8947
 20
-73.8146
  0
VERTEX
  8
LAYER_1
 10
32.8947
 20
-71.8157
  0
SEQEND
  0
POLYLINE
  8
LAYER_1
 40
0.1764
 41
0.1764
 62
1
 66
1
 10
0
 20
0
 30
0
  0
VERTEX
  8
LAYER_1
 10
32.8947
 20
-75.8136
  0
VERTEX
  8
LAYER_1
 10
32.8947
 20
-73.8146
  0
SEQEND
  0
POLYLINE
  8
LAYER_1
 40
0.1764
 41
0.1764
 62
1
 66
1
 10
0
 20
0
 30
0
  0
VERTEX
  8
LAYER_1
 10
32.8947
 20
-77.8125
  0
VERTEX
  8
LAYER_1
 10
32.8947
 20
-75.8136
  0
SEQEND
  0
POLYLINE
  8
LAYER_1
 40
0.1764
 41
0.1764
 62
1
 66
1
 10
0
 20
0
 30
0
  0
VERTEX
  8
LAYER_1
 10
32.8947
 20
-79.8114
  0
VERTEX
  8
LAYER_1
 10
32.8947
 20
-77.8125
  0
SEQEND
  0
POLYLINE
  8
LAYER_1
 40
0.1764
 41
0.1764
 62
1
 66
1
 10
0
 20
0
 30
0
  0
VERTEX
  8
LAYER_1
 10
32.8947
 20
-81.8104
  0
VERTEX
  8
LAYER_1
 10
32.8947
 20
-79.8114
  0
SEQEND
  0
POLYLINE
  8
LAYER_1
 40
0.1764
 41
0.1764
 62
1
 66
1
 10
0
 20
0
 30
0
  0
VERTEX
  8
LAYER_1
 10
32.8947
 20
-83.8093
  0
VERTEX
  8
LAYER_1
 10
32.8947
 20
-81.8104
  0
SEQEND
  0
POLYLINE
  8
LAYER_1
 40
0.1764
 41
0.1764
 62
1
 66
1
 10
0
 20
0
 30
0
  0
VERTEX
  8
LAYER_1
 10
32.8947
 20
-71.8157
  0
VERTEX
  8
LAYER_1
 10
26.0255
 20
-75.7797
  0
SEQEND
  0
POLYLINE
  8
LAYER_1
 40
0.1764
 41
0.1764
 62
1
 66
1
 10
0
 20
0
 30
0
  0
VERTEX
  8
LAYER_1
 10
32.8947
 20
-73.8146
  0
VERTEX
  8
LAYER_1
 10
26.2542
 20
-77.6515
  0
SEQEND
  0
POLYLINE
  8
LAYER_1
 40
0.1764
 41
0.1764
 62
1
 66
1
 10
0
 20
0
 30
0
  0
VERTEX
  8
LAYER_1
 10
32.8947
 20
-75.8135
  0
VERTEX
  8
LAYER_1
 10
26.322
 20
-79.6081
  0
SEQEND
  0
POLYLINE
  8
LAYER_1
 40
0.1764
 41
0.1764
 62
1
 66
1
 10
0
 20
0
 30
0
  0
VERTEX
  8
LAYER_1
 10
25.9662
 20
-81.8103
  0
VERTEX
  8
LAYER_1
 10
25.9662
 20
-73.8146
  0
SEQEND
  0
POLYLINE
  8
LAYER_1
 40
0.1764
 41
0.1764
 62
1
 66
1
 10
0
 20
0
 30
0
  0
VERTEX
  8
LAYER_1
 10
26.3982
 20
-73.569
  0
VERTEX
  8
LAYER_1
 10
25.9662
 20
-73.8146
  0
SEQEND
  0
POLYLINE
  8
LAYER_1
 40
0.1764
 41
0.1764
 62
1
 66
1
 10
0
 20
0
 30
0
  0
VERTEX
  8
LAYER_1
 10
26.2542
 20
-77.6515
  0
VERTEX
  8
LAYER_1
 10
25.9662
 20
-77.8125
  0
SEQEND
  0
POLYLINE
  8
LAYER_1
 40
0.1764
 41
0.1764
 62
1
 66
1
 10
0
 20
0
 30
0
  0
VERTEX
  8
LAYER_1
 10
26.322
 20
-79.6081
  0
VERTEX
  8
LAYER_1
 10
25.9662
 20
-79.8114
  0
SEQEND
  0
POLYLINE
  8
LAYER_1
 40
0.1764
 41
0.1764
 62
1
 66
1
 10
0
 20
0
 30
0
  0
VERTEX
  8
LAYER_1
 10
32.8947
 20
-85.8167
  0
VERTEX
  8
LAYER_1
 10
25.9662
 20
-81.8103
  0
SEQEND
  0
POLYLINE
  8
LAYER_1
 40
0.1764
 41
0.1764
 62
1
 66
1
 10
0
 20
0
 30
0
  0
VERTEX
  8
LAYER_1
 10
32.8947
 20
-77.8125
  0
VERTEX
  8
LAYER_1
 10
25.9662
 20
-81.8103
  0
SEQEND
  0
POLYLINE
  8
LAYER_1
 40
0.1764
 41
0.1764
 62
1
 66
1
 10
0
 20
0
 30
0
  0
VERTEX
  8
LAYER_1
 10
32.8947
 20
-79.8114
  0
VERTEX
  8
LAYER_1
 10
31.1669
 20
-78.8119
  0
SEQEND
  0
POLYLINE
  8
LAYER_1
 40
0.1764
 41
0.1764
 62
1
 66
1
 10
0
 20
0
 30
0
  0
VERTEX
  8
LAYER_1
 10
32.8947
 20
-81.8103
  0
VERTEX
  8
LAYER_1
 10
29.4305
 20
-79.8114
  0
SEQEND
  0
POLYLINE
  8
LAYER_1
 40
0.1764
 41
0.1764
 62
1
 66
1
 10
0
 20
0
 30
0
  0
VERTEX
  8
LAYER_1
 10
32.8947
 20
-83.8092
  0
VERTEX
  8
LAYER_1
 10
27.7026
 20
-80.8108
  0
SEQEND
  0
TEXT
  8
LAYER_1
 10
31.0184
 20
-78.625
 11
31.0184
 21
-78.625
 40
4.1737
 41
0.5
 50
89.99999999
  1
B
  0
ENDBLK
  0
BLOCK
  8
LAYER_1
  2
AIGNBL01010011
 70
64
 10
0
 20
0
 30
0
  3
AIGNBL01010011
  0
INSERT
  8
LAYER_1
  2
AIGNBL01020012
 10
0
 20
0
 30
0
  0
TEXT
  8
LAYER_1
 10
28.0482
 20
-88.6212
 11
28.0482
 21
-88.6212
 40
4.1737
 41
0.5
 50
270
  1
A
  0
ENDBLK
  0
BLOCK
  8
LAYER_1
  2
AIGNBL01010013
 70
64
 10
0
 20
0
 30
0
  3
AIGNBL01010013
  0
POLYLINE
  8
LAYER_1
 40
0.1764
 41
0.1764
 62
1
 66
1
 10
0
 20
0
 30
0
  0
VERTEX
  8
LAYER_1
 10
25.4662
 20
-98.319
  0
VERTEX
  8
LAYER_1
 10
25.4662
 20
-82.319
  0
VERTEX
  8
LAYER_1
 10
18.9697
 20
-86.0713
  0
SEQEND
  0
POLYLINE
  8
LAYER_1
 40
0.1764
 41
0.1764
 62
1
 66
1
 10
0
 20
0
 30
0
  0
VERTEX
  8
LAYER_1
 10
25.4662
 20
-84.318
  0
VERTEX
  8
LAYER_1
 10
25.4662
 20
-82.319
  0
SEQEND
  0
POLYLINE
  8
LAYER_1
 40
0.1764
 41
0.1764
 62
1
 66
1
 10
0
 20
0
 30
0
  0
VERTEX
  8
LAYER_1
 10
25.4662
 20
-86.3169
  0
VERTEX
  8
LAYER_1
 10
25.4662
 20
-84.318
  0
SEQEND
  0
POLYLINE
  8
LAYER_1
 40
0.1764
 41
0.1764
 62
1
 66
1
 10
0
 20
0
 30
0
  0
VERTEX
  8
LAYER_1
 10
25.4662
 20
-88.3158
  0
VERTEX
  8
LAYER_1
 10
25.4662
 20
-86.3169
  0
SEQEND
  0
POLYLINE
  8
LAYER_1
 40
0.1764
 41
0.1764
 62
1
 66
1
 10
0
 20
0
 30
0
  0
VERTEX
  8
LAYER_1
 10
25.4662
 20
-90.3147
  0
VERTEX
  8
LAYER_1
 10
25.4662
 20
-88.3158
  0
SEQEND
  0
POLYLINE
  8
LAYER_1
 40
0.1764
 41
0.1764
 62
1
 66
1
 10
0
 20
0
 30
0
  0
VERTEX
  8
LAYER_1
 10
25.4662
 20
-92.3137
  0
VERTEX
  8
LAYER_1
 10
25.4662
 20
-90.3147
  0
SEQEND
  0
POLYLINE
  8
LAYER_1
 40
0.1764
 41
0.1764
 62
1
 66
1
 10
0
 20
0
 30
0
  0
VERTEX
  8
LAYER_1
 10
25.4662
 20
-94.3126
  0
VERTEX
  8
LAYER_1
 10
25.4662
 20
-92.3137
  0
SEQEND
  0
POLYLINE
  8
LAYER_1
 40
0.1764
 41
0.1764
 62
1
 66
1
 10
0
 20
0
 30
0
  0
VERTEX
  8
LAYER_1
 10
25.4662
 20
-96.3115
  0
VERTEX
  8
LAYER_1
 10
25.4662
 20
-94.3126
  0
SEQEND
  0
POLYLINE
  8
LAYER_1
 40
0.1764
 41
0.1764
 62
1
 66
1
 10
0
 20
0
 30
0
  0
VERTEX
  8
LAYER_1
 10
25.4662
 20
-84.3179
  0
VERTEX
  8
LAYER_1
 10
18.597
 20
-88.2819
  0
SEQEND
  0
POLYLINE
  8
LAYER_1
 40
0.1764
 41
0.1764
 62
1
 66
1
 10
0
 20
0
 30
0
  0
VERTEX
  8
LAYER_1
 10
25.4662
 20
-86.3169
  0
VERTEX
  8
LAYER_1
 10
18.8257
 20
-90.1538
  0
SEQEND
  0
POLYLINE
  8
LAYER_1
 40
0.1764
 41
0.1764
 62
1
 66
1
 10
0
 20
0
 30
0
  0
VERTEX
  8
LAYER_1
 10
25.4662
 20
-88.3158
  0
VERTEX
  8
LAYER_1
 10
18.8935
 20
-92.1104
  0
SEQEND
  0
POLYLINE
  8
LAYER_1
 40
0.1764
 41
0.1764
 62
1
 66
1
 10
0
 20
0
 30
0
  0
VERTEX
  8
LAYER_1
 10
18.5377
 20
-94.3126
  0
VERTEX
  8
LAYER_1
 10
18.5377
 20
-86.3169
  0
SEQEND
  0
POLYLINE
  8
LAYER_1
 40
0.1764
 41
0.1764
 62
1
 66
1
 10
0
 20
0
 30
0
  0
VERTEX
  8
LAYER_1
 10
18.9697
 20
-86.0712
  0
VERTEX
  8
LAYER_1
 10
18.5377
 20
-86.3169
  0
SEQEND
  0
POLYLINE
  8
LAYER_1
 40
0.1764
 41
0.1764
 62
1
 66
1
 10
0
 20
0
 30
0
  0
VERTEX
  8
LAYER_1
 10
18.8257
 20
-90.1538
  0
VERTEX
  8
LAYER_1
 10
18.5377
 20
-90.3147
  0
SEQEND
  0
POLYLINE
  8
LAYER_1
 40
0.1764
 41
0.1764
 62
1
 66
1
 10
0
 20
0
 30
0
  0
VERTEX
  8
LAYER_1
 10
18.8935
 20
-92.1104
  0
VERTEX
  8
LAYER_1
 10
18.5377
 20
-92.3137
  0
SEQEND
  0
POLYLINE
  8
LAYER_1
 40
0.1764
 41
0.1764
 62
1
 66
1
 10
0
 20
0
 30
0
  0
VERTEX
  8
LAYER_1
 10
25.4662
 20
-98.3189
  0
VERTEX
  8
LAYER_1
 10
18.5377
 20
-94.3126
  0
SEQEND
  0
POLYLINE
  8
LAYER_1
 40
0.1764
 41
0.1764
 62
1
 66
1
 10
0
 20
0
 30
0
  0
VERTEX
  8
LAYER_1
 10
25.4662
 20
-90.3147
  0
VERTEX
  8
LAYER_1
 10
18.5377
 20
-94.3126
  0
SEQEND
  0
POLYLINE
  8
LAYER_1
 40
0.1764
 41
0.1764
 62
1
 66
1
 10
0
 20
0
 30
0
  0
VERTEX
  8
LAYER_1
 10
25.4662
 20
-92.3136
  0
VERTEX
  8
LAYER_1
 10
23.7384
 20
-91.3142
  0
SEQEND
  0
POLYLINE
  8
LAYER_1
 40
0.1764
 41
0.1764
 62
1
 66
1
 10
0
 20
0
 30
0
  0
VERTEX
  8
LAYER_1
 10
25.4662
 20
-94.3126
  0
VERTEX
  8
LAYER_1
 10
22.002
 20
-92.3136
  0
SEQEND
  0
POLYLINE
  8
LAYER_1
 40
0.1764
 41
0.1764
 62
1
 66
1
 10
0
 20
0
 30
0
  0
VERTEX
  8
LAYER_1
 10
25.4662
 20
-96.3115
  0
VERTEX
  8
LAYER_1
 10
20.2741
 20
-93.3131
  0
SEQEND
  0
TEXT
  8
LAYER_1
 10
23.5899
 20
-91.1273
 11
23.5899
 21
-91.1273
 40
4.1737
 41
0.5
 50
89.99999999
  1
B
  0
ENDBLK
  0
BLOCK
  8
LAYER_1
  2
AIGNBL01010014
 70
64
 10
0
 20
0
 30
0
  3
AIGNBL01010014
  0
INSERT
  8
LAYER_1
  2
AIGNBL01020015
 10
0
 20
0
 30
0
  0
TEXT
  8
LAYER_1
 10
-9.2084
 20
-101.1151
 11
-9.2084
 21
-101.1151
 40
4.1737
 41
0.5
 50
270
  1
A
  0
ENDBLK
  0
BLOCK
  8
LAYER_1
  2
AIGNBL01010016
 70
64
 10
0
 20
0
 30
0
  3
AIGNBL01010016
  0
POLYLINE
  8
LAYER_1
 40
0.1764
 41
0.1764
 62
1
 66
1
 10
0
 20
0
 30
0
  0
VERTEX
  8
LAYER_1
 10
3.1044
 20
-110.8124
  0
VERTEX
  8
LAYER_1
 10
3.1044
 20
-94.8124
  0
VERTEX
  8
LAYER_1
 10
-3.3921
 20
-98.5647
  0
SEQEND
  0
POLYLINE
  8
LAYER_1
 40
0.1764
 41
0.1764
 62
1
 66
1
 10
0
 20
0
 30
0
  0
VERTEX
  8
LAYER_1
 10
3.1044
 20
-96.8114
  0
VERTEX
  8
LAYER_1
 10
3.1044
 20
-94.8124
  0
SEQEND
  0
POLYLINE
  8
LAYER_1
 40
0.1764
 41
0.1764
 62
1
 66
1
 10
0
 20
0
 30
0
  0
VERTEX
  8
LAYER_1
 10
3.1044
 20
-98.8103
  0
VERTEX
  8
LAYER_1
 10
3.1044
 20
-96.8114
  0
SEQEND
  0
POLYLINE
  8
LAYER_1
 40
0.1764
 41
0.1764
 62
1
 66
1
 10
0
 20
0
 30
0
  0
VERTEX
  8
LAYER_1
 10
3.1044
 20
-100.8092
  0
VERTEX
  8
LAYER_1
 10
3.1044
 20
-98.8103
  0
SEQEND
  0
POLYLINE
  8
LAYER_1
 40
0.1764
 41
0.1764
 62
1
 66
1
 10
0
 20
0
 30
0
  0
VERTEX
  8
LAYER_1
 10
3.1044
 20
-102.8082
  0
VERTEX
  8
LAYER_1
 10
3.1044
 20
-100.8092
  0
SEQEND
  0
POLYLINE
  8
LAYER_1
 40
0.1764
 41
0.1764
 62
1
 66
1
 10
0
 20
0
 30
0
  0
VERTEX
  8
LAYER_1
 10
3.1044
 20
-104.8071
  0
VERTEX
  8
LAYER_1
 10
3.1044
 20
-102.8082
  0
SEQEND
  0
POLYLINE
  8
LAYER_1
 40
0.1764
 41
0.1764
 62
1
 66
1
 10
0
 20
0
 30
0
  0
VERTEX
  8
LAYER_1
 10
3.1044
 20
-106.806
  0
VERTEX
  8
LAYER_1
 10
3.1044
 20
-104.8071
  0
SEQEND
  0
POLYLINE
  8
LAYER_1
 40
0.1764
 41
0.1764
 62
1
 66
1
 10
0
 20
0
 30
0
  0
VERTEX
  8
LAYER_1
 10
3.1044
 20
-108.8049
  0
VERTEX
  8
LAYER_1
 10
3.1044
 20
-106.806
  0
SEQEND
  0
POLYLINE
  8
LAYER_1
 40
0.1764
 41
0.1764
 62
1
 66
1
 10
0
 20
0
 30
0
  0
VERTEX
  8
LAYER_1
 10
3.1044
 20
-96.8113
  0
VERTEX
  8
LAYER_1
 10
-3.7648
 20
-100.7753
  0
SEQEND
  0
POLYLINE
  8
LAYER_1
 40
0.1764
 41
0.1764
 62
1
 66
1
 10
0
 20
0
 30
0
  0
VERTEX
  8
LAYER_1
 10
3.1044
 20
-98.8103
  0
VERTEX
  8
LAYER_1
 10
-3.5361
 20
-102.6472
  0
SEQEND
  0
POLYLINE
  8
LAYER_1
 40
0.1764
 41
0.1764
 62
1
 66
1
 10
0
 20
0
 30
0
  0
VERTEX
  8
LAYER_1
 10
3.1044
 20
-100.8092
  0
VERTEX
  8
LAYER_1
 10
-3.4684
 20
-104.6038
  0
SEQEND
  0
POLYLINE
  8
LAYER_1
 40
0.1764
 41
0.1764
 62
1
 66
1
 10
0
 20
0
 30
0
  0
VERTEX
  8
LAYER_1
 10
-3.8241
 20
-106.806
  0
VERTEX
  8
LAYER_1
 10
-3.8241
 20
-98.8103
  0
SEQEND
  0
POLYLINE
  8
LAYER_1
 40
0.1764
 41
0.1764
 62
1
 66
1
 10
0
 20
0
 30
0
  0
VERTEX
  8
LAYER_1
 10
-3.3921
 20
-98.5646
  0
VERTEX
  8
LAYER_1
 10
-3.8241
 20
-98.8103
  0
SEQEND
  0
POLYLINE
  8
LAYER_1
 40
0.1764
 41
0.1764
 62
1
 66
1
 10
0
 20
0
 30
0
  0
VERTEX
  8
LAYER_1
 10
-3.5361
 20
-102.6472
  0
VERTEX
  8
LAYER_1
 10
-3.8241
 20
-102.8081
  0
SEQEND
  0
POLYLINE
  8
LAYER_1
 40
0.1764
 41
0.1764
 62
1
 66
1
 10
0
 20
0
 30
0
  0
VERTEX
  8
LAYER_1
 10
-3.4684
 20
-104.6038
  0
VERTEX
  8
LAYER_1
 10
-3.8241
 20
-104.8071
  0
SEQEND
  0
POLYLINE
  8
LAYER_1
 40
0.1764
 41
0.1764
 62
1
 66
1
 10
0
 20
0
 30
0
  0
VERTEX
  8
LAYER_1
 10
3.1044
 20
-110.8123
  0
VERTEX
  8
LAYER_1
 10
-3.8241
 20
-106.806
  0
SEQEND
  0
POLYLINE
  8
LAYER_1
 40
0.1764
 41
0.1764
 62
1
 66
1
 10
0
 20
0
 30
0
  0
VERTEX
  8
LAYER_1
 10
3.1044
 20
-102.8081
  0
VERTEX
  8
LAYER_1
 10
-3.8241
 20
-106.806
  0
SEQEND
  0
POLYLINE
  8
LAYER_1
 40
0.1764
 41
0.1764
 62
1
 66
1
 10
0
 20
0
 30
0
  0
VERTEX
  8
LAYER_1
 10
3.1044
 20
-104.8071
  0
VERTEX
  8
LAYER_1
 10
1.3765
 20
-103.8076
  0
SEQEND
  0
POLYLINE
  8
LAYER_1
 40
0.1764
 41
0.1764
 62
1
 66
1
 10
0
 20
0
 30
0
  0
VERTEX
  8
LAYER_1
 10
3.1044
 20
-106.806
  0
VERTEX
  8
LAYER_1
 10
-0.3598
 20
-104.8071
  0
SEQEND
  0
POLYLINE
  8
LAYER_1
 40
0.1764
 41
0.1764
 62
1
 66
1
 10
0
 20
0
 30
0
  0
VERTEX
  8
LAYER_1
 10
3.1044
 20
-108.8049
  0
VERTEX
  8
LAYER_1
 10
-2.0877
 20
-105.8065
  0
SEQEND
  0
TEXT
  8
LAYER_1
 10
1.2281
 20
-103.6205
 11
1.2281
 21
-103.6205
 40
4.1737
 41
0.5
 50
89.99999999
  1
B
  0
ENDBLK
  0
BLOCK
  8
LAYER_1
  2
AIGNBL01010017
 70
64
 10
0
 20
0
 30
0
  3
AIGNBL01010017
  0
INSERT
  8
LAYER_1
  2
AIGNBL01020018
 10
0
 20
0
 30
0
  0
TEXT
  8
LAYER_1
 10
-1.7422
 20
-113.6169
 11
-1.7422
 21
-113.6169
 40
4.1737
 41
0.5
 50
270
  1
A
  0
ENDBLK
  0
BLOCK
  8
LAYER_1
  2
AIGNBL01010019
 70
64
 10
0
 20
0
 30
0
  3
AIGNBL01010019
  0
POLYLINE
  8
LAYER_1
 40
0.1764
 41
0.1764
 62
1
 66
1
 10
0
 20
0
 30
0
  0
VERTEX
  8
LAYER_1
 10
-4.3241
 20
-123.3146
  0
VERTEX
  8
LAYER_1
 10
-4.3241
 20
-107.3147
  0
VERTEX
  8
LAYER_1
 10
-10.8206
 20
-111.0669
  0
SEQEND
  0
POLYLINE
  8
LAYER_1
 40
0.1764
 41
0.1764
 62
1
 66
1
 10
0
 20
0
 30
0
  0
VERTEX
  8
LAYER_1
 10
-4.3241
 20
-109.3136
  0
VERTEX
  8
LAYER_1
 10
-4.3241
 20
-107.3147
  0
SEQEND
  0
POLYLINE
  8
LAYER_1
 40
0.1764
 41
0.1764
 62
1
 66
1
 10
0
 20
0
 30
0
  0
VERTEX
  8
LAYER_1
 10
-4.3241
 20
-111.3126
  0
VERTEX
  8
LAYER_1
 10
-4.3241
 20
-109.3136
  0
SEQEND
  0
POLYLINE
  8
LAYER_1
 40
0.1764
 41
0.1764
 62
1
 66
1
 10
0
 20
0
 30
0
  0
VERTEX
  8
LAYER_1
 10
-4.3241
 20
-113.3115
  0
VERTEX
  8
LAYER_1
 10
-4.3241
 20
-111.3126
  0
SEQEND
  0
POLYLINE
  8
LAYER_1
 40
0.1764
 41
0.1764
 62
1
 66
1
 10
0
 20
0
 30
0
  0
VERTEX
  8
LAYER_1
 10
-4.3241
 20
-115.3104
  0
VERTEX
  8
LAYER_1
 10
-4.3241
 20
-113.3115
  0
SEQEND
  0
POLYLINE
  8
LAYER_1
 40
0.1764
 41
0.1764
 62
1
 66
1
 10
0
 20
0
 30
0
  0
VERTEX
  8
LAYER_1
 10
-4.3241
 20
-117.3093
  0
VERTEX
  8
LAYER_1
 10
-4.3241
 20
-115.3104
  0
SEQEND
  0
POLYLINE
  8
LAYER_1
 40
0.1764
 41
0.1764
 62
1
 66
1
 10
0
 20
0
 30
0
  0
VERTEX
  8
LAYER_1
 10
-4.3241
 20
-119.3083
  0
VERTEX
  8
LAYER_1
 10
-4.3241
 20
-117.3093
  0
SEQEND
  0
POLYLINE
  8
LAYER_1
 40
0.1764
 41
0.1764
 62
1
 66
1
 10
0
 20
0
 30
0
  0
VERTEX
  8
LAYER_1
 10
-4.3241
 20
-121.3072
  0
VERTEX
  8
LAYER_1
 10
-4.3241
 20
-119.3083
  0
SEQEND
  0
POLYLINE
  8
LAYER_1
 40
0.1764
 41
0.1764
 62
1
 66
1
 10
0
 20
0
 30
0
  0
VERTEX
  8
LAYER_1
 10
-4.3241
 20
-109.3136
  0
VERTEX
  8
LAYER_1
 10
-11.1933
 20
-113.2776
  0
SEQEND
  0
POLYLINE
  8
LAYER_1
 40
0.1764
 41
0.1764
 62
1
 66
1
 10
0
 20
0
 30
0
  0
VERTEX
  8
LAYER_1
 10
-4.3241
 20
-111.3125
  0
VERTEX
  8
LAYER_1
 10
-10.9646
 20
-115.1495
  0
SEQEND
  0
POLYLINE
  8
LAYER_1
 40
0.1764
 41
0.1764
 62
1
 66
1
 10
0
 20
0
 30
0
  0
VERTEX
  8
LAYER_1
 10
-4.3241
 20
-113.3115
  0
VERTEX
  8
LAYER_1
 10
-10.8969
 20
-117.106
  0
SEQEND
  0
POLYLINE
  8
LAYER_1
 40
0.1764
 41
0.1764
 62
1
 66
1
 10
0
 20
0
 30
0
  0
VERTEX
  8
LAYER_1
 10
-11.2526
 20
-119.3083
  0
VERTEX
  8
LAYER_1
 10
-11.2526
 20
-111.3125
  0
SEQEND
  0
POLYLINE
  8
LAYER_1
 40
0.1764
 41
0.1764
 62
1
 66
1
 10
0
 20
0
 30
0
  0
VERTEX
  8
LAYER_1
 10
-10.8206
 20
-111.0669
  0
VERTEX
  8
LAYER_1
 10
-11.2526
 20
-111.3125
  0
SEQEND
  0
POLYLINE
  8
LAYER_1
 40
0.1764
 41
0.1764
 62
1
 66
1
 10
0
 20
0
 30
0
  0
VERTEX
  8
LAYER_1
 10
-10.9646
 20
-115.1495
  0
VERTEX
  8
LAYER_1
 10
-11.2526
 20
-115.3104
  0
SEQEND
  0
POLYLINE
  8
LAYER_1
 40
0.1764
 41
0.1764
 62
1
 66
1
 10
0
 20
0
 30
0
  0
VERTEX
  8
LAYER_1
 10
-10.8969
 20
-117.106
  0
VERTEX
  8
LAYER_1
 10
-11.2526
 20
-117.3093
  0
SEQEND
  0
POLYLINE
  8
LAYER_1
 40
0.1764
 41
0.1764
 62
1
 66
1
 10
0
 20
0
 30
0
  0
VERTEX
  8
LAYER_1
 10
-4.3241
 20
-123.3146
  0
VERTEX
  8
LAYER_1
 10
-11.2526
 20
-119.3082
  0
SEQEND
  0
POLYLINE
  8
LAYER_1
 40
0.1764
 41
0.1764
 62
1
 66
1
 10
0
 20
0
 30
0
  0
VERTEX
  8
LAYER_1
 10
-4.3241
 20
-115.3104
  0
VERTEX
  8
LAYER_1
 10
-11.2526
 20
-119.3082
  0
SEQEND
  0
POLYLINE
  8
LAYER_1
 40
0.1764
 41
0.1764
 62
1
 66
1
 10
0
 20
0
 30
0
  0
VERTEX
  8
LAYER_1
 10
-4.3241
 20
-117.3093
  0
VERTEX
  8
LAYER_1
 10
-6.052
 20
-116.3098
  0
SEQEND
  0
POLYLINE
  8
LAYER_1
 40
0.1764
 41
0.1764
 62
1
 66
1
 10
0
 20
0
 30
0
  0
VERTEX
  8
LAYER_1
 10
-4.3241
 20
-119.3082
  0
VERTEX
  8
LAYER_1
 10
-7.7883
 20
-117.3093
  0
SEQEND
  0
POLYLINE
  8
LAYER_1
 40
0.1764
 41
0.1764
 62
1
 66
1
 10
0
 20
0
 30
0
  0
VERTEX
  8
LAYER_1
 10
-4.3241
 20
-121.3072
  0
VERTEX
  8
LAYER_1
 10
-9.5162
 20
-118.3088
  0
SEQEND
  0
TEXT
  8
LAYER_1
 10
-6.2004
 20
-116.1228
 11
-6.2004
 21
-116.1228
 40
4.1737
 41
0.5
 50
89.99999999
  1
B
  0
ENDBLK
  0
BLOCK
  8
LAYER_1
  2
AIGNBL0101001A
 70
64
 10
0
 20
0
 30
0
  3
AIGNBL0101001A
  0
INSERT
  8
LAYER_1
  2
AIGNBL0102001B
 10
0
 20
0
 30
0
  0
TEXT
  8
LAYER_1
 10
5.6868
 20
-101.1151
 11
5.6868
 21
-101.1151
 40
4.1737
 41
0.5
 50
270
  1
A
  0
ENDBLK
  0
BLOCK
  8
LAYER_1
  2
AIGNBL0101001C
 70
64
 10
0
 20
0
 30
0
  3
AIGNBL0101001C
  0
POLYLINE
  8
LAYER_1
 40
0.1764
 41
0.1764
 62
1
 66
1
 10
0
 20
0
 30
0
  0
VERTEX
  8
LAYER_1
 10
17.9996
 20
-110.8124
  0
VERTEX
  8
LAYER_1
 10
17.9996
 20
-94.8124
  0
VERTEX
  8
LAYER_1
 10
11.5031
 20
-98.5647
  0
SEQEND
  0
POLYLINE
  8
LAYER_1
 40
0.1764
 41
0.1764
 62
1
 66
1
 10
0
 20
0
 30
0
  0
VERTEX
  8
LAYER_1
 10
17.9996
 20
-96.8114
  0
VERTEX
  8
LAYER_1
 10
17.9996
 20
-94.8124
  0
SEQEND
  0
POLYLINE
  8
LAYER_1
 40
0.1764
 41
0.1764
 62
1
 66
1
 10
0
 20
0
 30
0
  0
VERTEX
  8
LAYER_1
 10
17.9996
 20
-98.8103
  0
VERTEX
  8
LAYER_1
 10
17.9996
 20
-96.8114
  0
SEQEND
  0
POLYLINE
  8
LAYER_1
 40
0.1764
 41
0.1764
 62
1
 66
1
 10
0
 20
0
 30
0
  0
VERTEX
  8
LAYER_1
 10
17.9996
 20
-100.8092
  0
VERTEX
  8
LAYER_1
 10
17.9996
 20
-98.8103
  0
SEQEND
  0
POLYLINE
  8
LAYER_1
 40
0.1764
 41
0.1764
 62
1
 66
1
 10
0
 20
0
 30
0
  0
VERTEX
  8
LAYER_1
 10
17.9996
 20
-102.8082
  0
VERTEX
  8
LAYER_1
 10
17.9996
 20
-100.8092
  0
SEQEND
  0
POLYLINE
  8
LAYER_1
 40
0.1764
 41
0.1764
 62
1
 66
1
 10
0
 20
0
 30
0
  0
VERTEX
  8
LAYER_1
 10
17.9996
 20
-104.8071
  0
VERTEX
  8
LAYER_1
 10
17.9996
 20
-102.8082
  0
SEQEND
  0
POLYLINE
  8
LAYER_1
 40
0.1764
 41
0.1764
 62
1
 66
1
 10
0
 20
0
 30
0
  0
VERTEX
  8
LAYER_1
 10
17.9996
 20
-106.806
  0
VERTEX
  8
LAYER_1
 10
17.9996
 20
-104.8071
  0
SEQEND
  0
POLYLINE
  8
LAYER_1
 40
0.1764
 41
0.1764
 62
1
 66
1
 10
0
 20
0
 30
0
  0
VERTEX
  8
LAYER_1
 10
17.9996
 20
-108.8049
  0
VERTEX
  8
LAYER_1
 10
17.9996
 20
-106.806
  0
SEQEND
  0
POLYLINE
  8
LAYER_1
 40
0.1764
 41
0.1764
 62
1
 66
1
 10
0
 20
0
 30
0
  0
VERTEX
  8
LAYER_1
 10
17.9996
 20
-96.8113
  0
VERTEX
  8
LAYER_1
 10
11.1304
 20
-100.7753
  0
SEQEND
  0
POLYLINE
  8
LAYER_1
 40
0.1764
 41
0.1764
 62
1
 66
1
 10
0
 20
0
 30
0
  0
VERTEX
  8
LAYER_1
 10
17.9996
 20
-98.8103
  0
VERTEX
  8
LAYER_1
 10
11.3591
 20
-102.6472
  0
SEQEND
  0
POLYLINE
  8
LAYER_1
 40
0.1764
 41
0.1764
 62
1
 66
1
 10
0
 20
0
 30
0
  0
VERTEX
  8
LAYER_1
 10
17.9996
 20
-100.8092
  0
VERTEX
  8
LAYER_1
 10
11.4268
 20
-104.6038
  0
SEQEND
  0
POLYLINE
  8
LAYER_1
 40
0.1764
 41
0.1764
 62
1
 66
1
 10
0
 20
0
 30
0
  0
VERTEX
  8
LAYER_1
 10
11.0711
 20
-106.806
  0
VERTEX
  8
LAYER_1
 10
11.0711
 20
-98.8103
  0
SEQEND
  0
POLYLINE
  8
LAYER_1
 40
0.1764
 41
0.1764
 62
1
 66
1
 10
0
 20
0
 30
0
  0
VERTEX
  8
LAYER_1
 10
11.503
 20
-98.5646
  0
VERTEX
  8
LAYER_1
 10
11.0711
 20
-98.8103
  0
SEQEND
  0
POLYLINE
  8
LAYER_1
 40
0.1764
 41
0.1764
 62
1
 66
1
 10
0
 20
0
 30
0
  0
VERTEX
  8
LAYER_1
 10
11.3591
 20
-102.6472
  0
VERTEX
  8
LAYER_1
 10
11.0711
 20
-102.8081
  0
SEQEND
  0
POLYLINE
  8
LAYER_1
 40
0.1764
 41
0.1764
 62
1
 66
1
 10
0
 20
0
 30
0
  0
VERTEX
  8
LAYER_1
 10
11.4268
 20
-104.6038
  0
VERTEX
  8
LAYER_1
 10
11.0711
 20
-104.8071
  0
SEQEND
  0
POLYLINE
  8
LAYER_1
 40
0.1764
 41
0.1764
 62
1
 66
1
 10
0
 20
0
 30
0
  0
VERTEX
  8
LAYER_1
 10
17.9996
 20
-110.8123
  0
VERTEX
  8
LAYER_1
 10
11.0711
 20
-106.806
  0
SEQEND
  0
POLYLINE
  8
LAYER_1
 40
0.1764
 41
0.1764
 62
1
 66
1
 10
0
 20
0
 30
0
  0
VERTEX
  8
LAYER_1
 10
17.9996
 20
-102.8081
  0
VERTEX
  8
LAYER_1
 10
11.0711
 20
-106.806
  0
SEQEND
  0
POLYLINE
  8
LAYER_1
 40
0.1764
 41
0.1764
 62
1
 66
1
 10
0
 20
0
 30
0
  0
VERTEX
  8
LAYER_1
 10
17.9996
 20
-104.8071
  0
VERTEX
  8
LAYER_1
 10
16.2717
 20
-103.8076
  0
SEQEND
  0
POLYLINE
  8
LAYER_1
 40
0.1764
 41
0.1764
 62
1
 66
1
 10
0
 20
0
 30
0
  0
VERTEX
  8
LAYER_1
 10
17.9996
 20
-106.806
  0
VERTEX
  8
LAYER_1
 10
14.5353
 20
-104.8071
  0
SEQEND
  0
POLYLINE
  8
LAYER_1
 40
0.1764
 41
0.1764
 62
1
 66
1
 10
0
 20
0
 30
0
  0
VERTEX
  8
LAYER_1
 10
17.9996
 20
-108.8049
  0
VERTEX
  8
LAYER_1
 10
12.8074
 20
-105.8065
  0
SEQEND
  0
TEXT
  8
LAYER_1
 10
16.1233
 20
-103.6205
 11
16.1233
 21
-103.6205
 40
4.1737
 41
0.5
 50
89.99999999
  1
B
  0
ENDBLK
  0
BLOCK
  8
LAYER_1
  2
AIGNBL0101001D
 70
64
 10
0
 20
0
 30
0
  3
AIGNBL0101001D
  0
INSERT
  8
LAYER_1
  2
AIGNBL0102001E
 10
0
 20
0
 30
0
  0
TEXT
  8
LAYER_1
 10
13.153
 20
-113.6169
 11
13.153
 21
-113.6169
 40
4.1737
 41
0.5
 50
270
  1
A
  0
ENDBLK
  0
BLOCK
  8
LAYER_1
  2
AIGNBL0101001F
 70
64
 10
0
 20
0
 30
0
  3
AIGNBL0101001F
  0
POLYLINE
  8
LAYER_1
 40
0.1764
 41
0.1764
 62
1
 66
1
 10
0
 20
0
 30
0
  0
VERTEX
  8
LAYER_1
 10
10.5711
 20
-123.3146
  0
VERTEX
  8
LAYER_1
 10
10.5711
 20
-107.3147
  0
VERTEX
  8
LAYER_1
 10
4.0745
 20
-111.0669
  0
SEQEND
  0
POLYLINE
  8
LAYER_1
 40
0.1764
 41
0.1764
 62
1
 66
1
 10
0
 20
0
 30
0
  0
VERTEX
  8
LAYER_1
 10
10.5711
 20
-109.3136
  0
VERTEX
  8
LAYER_1
 10
10.5711
 20
-107.3147
  0
SEQEND
  0
POLYLINE
  8
LAYER_1
 40
0.1764
 41
0.1764
 62
1
 66
1
 10
0
 20
0
 30
0
  0
VERTEX
  8
LAYER_1
 10
10.5711
 20
-111.3126
  0
VERTEX
  8
LAYER_1
 10
10.5711
 20
-109.3136
  0
SEQEND
  0
POLYLINE
  8
LAYER_1
 40
0.1764
 41
0.1764
 62
1
 66
1
 10
0
 20
0
 30
0
  0
VERTEX
  8
LAYER_1
 10
10.5711
 20
-113.3115
  0
VERTEX
  8
LAYER_1
 10
10.5711
 20
-111.3126
  0
SEQEND
  0
POLYLINE
  8
LAYER_1
 40
0.1764
 41
0.1764
 62
1
 66
1
 10
0
 20
0
 30
0
  0
VERTEX
  8
LAYER_1
 10
10.5711
 20
-115.3104
  0
VERTEX
  8
LAYER_1
 10
10.5711
 20
-113.3115
  0
SEQEND
  0
POLYLINE
  8
LAYER_1
 40
0.1764
 41
0.1764
 62
1
 66
1
 10
0
 20
0
 30
0
  0
VERTEX
  8
LAYER_1
 10
10.5711
 20
-117.3093
  0
VERTEX
  8
LAYER_1
 10
10.5711
 20
-115.3104
  0
SEQEND
  0
POLYLINE
  8
LAYER_1
 40
0.1764
 41
0.1764
 62
1
 66
1
 10
0
 20
0
 30
0
  0
VERTEX
  8
LAYER_1
 10
10.5711
 20
-119.3083
  0
VERTEX
  8
LAYER_1
 10
10.5711
 20
-117.3093
  0
SEQEND
  0
POLYLINE
  8
LAYER_1
 40
0.1764
 41
0.1764
 62
1
 66
1
 10
0
 20
0
 30
0
  0
VERTEX
  8
LAYER_1
 10
10.5711
 20
-121.3072
  0
VERTEX
  8
LAYER_1
 10
10.5711
 20
-119.3083
  0
SEQEND
  0
POLYLINE
  8
LAYER_1
 40
0.1764
 41
0.1764
 62
1
 66
1
 10
0
 20
0
 30
0
  0
VERTEX
  8
LAYER_1
 10
10.5711
 20
-109.3136
  0
VERTEX
  8
LAYER_1
 10
3.7019
 20
-113.2776
  0
SEQEND
  0
POLYLINE
  8
LAYER_1
 40
0.1764
 41
0.1764
 62
1
 66
1
 10
0
 20
0
 30
0
  0
VERTEX
  8
LAYER_1
 10
10.5711
 20
-111.3125
  0
VERTEX
  8
LAYER_1
 10
3.9306
 20
-115.1495
  0
SEQEND
  0
POLYLINE
  8
LAYER_1
 40
0.1764
 41
0.1764
 62
1
 66
1
 10
0
 20
0
 30
0
  0
VERTEX
  8
LAYER_1
 10
10.5711
 20
-113.3115
  0
VERTEX
  8
LAYER_1
 10
3.9983
 20
-117.106
  0
SEQEND
  0
POLYLINE
  8
LAYER_1
 40
0.1764
 41
0.1764
 62
1
 66
1
 10
0
 20
0
 30
0
  0
VERTEX
  8
LAYER_1
 10
3.6426
 20
-119.3083
  0
VERTEX
  8
LAYER_1
 10
3.6426
 20
-111.3125
  0
SEQEND
  0
POLYLINE
  8
LAYER_1
 40
0.1764
 41
0.1764
 62
1
 66
1
 10
0
 20
0
 30
0
  0
VERTEX
  8
LAYER_1
 10
4.0745
 20
-111.0669
  0
VERTEX
  8
LAYER_1
 10
3.6426
 20
-111.3125
  0
SEQEND
  0
POLYLINE
  8
LAYER_1
 40
0.1764
 41
0.1764
 62
1
 66
1
 10
0
 20
0
 30
0
  0
VERTEX
  8
LAYER_1
 10
3.9306
 20
-115.1495
  0
VERTEX
  8
LAYER_1
 10
3.6426
 20
-115.3104
  0
SEQEND
  0
POLYLINE
  8
LAYER_1
 40
0.1764
 41
0.1764
 62
1
 66
1
 10
0
 20
0
 30
0
  0
VERTEX
  8
LAYER_1
 10
3.9983
 20
-117.106
  0
VERTEX
  8
LAYER_1
 10
3.6426
 20
-117.3093
  0
SEQEND
  0
POLYLINE
  8
LAYER_1
 40
0.1764
 41
0.1764
 62
1
 66
1
 10
0
 20
0
 30
0
  0
VERTEX
  8
LAYER_1
 10
10.5711
 20
-123.3146
  0
VERTEX
  8
LAYER_1
 10
3.6426
 20
-119.3082
  0
SEQEND
  0
POLYLINE
  8
LAYER_1
 40
0.1764
 41
0.1764
 62
1
 66
1
 10
0
 20
0
 30
0
  0
VERTEX
  8
LAYER_1
 10
10.5711
 20
-115.3104
  0
VERTEX
  8
LAYER_1
 10
3.6426
 20
-119.3082
  0
SEQEND
  0
POLYLINE
  8
LAYER_1
 40
0.1764
 41
0.1764
 62
1
 66
1
 10
0
 20
0
 30
0
  0
VERTEX
  8
LAYER_1
 10
10.5711
 20
-117.3093
  0
VERTEX
  8
LAYER_1
 10
8.8432
 20
-116.3098
  0
SEQEND
  0
POLYLINE
  8
LAYER_1
 40
0.1764
 41
0.1764
 62
1
 66
1
 10
0
 20
0
 30
0
  0
VERTEX
  8
LAYER_1
 10
10.5711
 20
-119.3082
  0
VERTEX
  8
LAYER_1
 10
7.1068
 20
-117.3093
  0
SEQEND
  0
POLYLINE
  8
LAYER_1
 40
0.1764
 41
0.1764
 62
1
 66
1
 10
0
 20
0
 30
0
  0
VERTEX
  8
LAYER_1
 10
10.5711
 20
-121.3072
  0
VERTEX
  8
LAYER_1
 10
5.3789
 20
-118.3088
  0
SEQEND
  0
TEXT
  8
LAYER_1
 10
8.6947
 20
-116.1228
 11
8.6947
 21
-116.1228
 40
4.1737
 41
0.5
 50
89.99999999
  1
B
  0
ENDBLK
  0
BLOCK
  8
LAYER_1
  2
AIGNBL01010020
 70
64
 10
0
 20
0
 30
0
  3
AIGNBL01010020
  0
INSERT
  8
LAYER_1
  2
AIGNBL01020021
 10
0
 20
0
 30
0
  0
TEXT
  8
LAYER_1
 10
20.582
 20
-101.1151
 11
20.582
 21
-101.1151
 40
4.1737
 41
0.5
 50
270
  1
A
  0
ENDBLK
  0
BLOCK
  8
LAYER_1
  2
AIGNBL01010022
 70
64
 10
0
 20
0
 30
0
  3
AIGNBL01010022
  0
POLYLINE
  8
LAYER_1
 40
0.1764
 41
0.1764
 62
1
 66
1
 10
0
 20
0
 30
0
  0
VERTEX
  8
LAYER_1
 10
32.8948
 20
-110.8124
  0
VERTEX
  8
LAYER_1
 10
32.8948
 20
-94.8124
  0
VERTEX
  8
LAYER_1
 10
26.3982
 20
-98.5647
  0
SEQEND
  0
POLYLINE
  8
LAYER_1
 40
0.1764
 41
0.1764
 62
1
 66
1
 10
0
 20
0
 30
0
  0
VERTEX
  8
LAYER_1
 10
32.8948
 20
-96.8114
  0
VERTEX
  8
LAYER_1
 10
32.8948
 20
-94.8124
  0
SEQEND
  0
POLYLINE
  8
LAYER_1
 40
0.1764
 41
0.1764
 62
1
 66
1
 10
0
 20
0
 30
0
  0
VERTEX
  8
LAYER_1
 10
32.8948
 20
-98.8103
  0
VERTEX
  8
LAYER_1
 10
32.8948
 20
-96.8114
  0
SEQEND
  0
POLYLINE
  8
LAYER_1
 40
0.1764
 41
0.1764
 62
1
 66
1
 10
0
 20
0
 30
0
  0
VERTEX
  8
LAYER_1
 10
32.8948
 20
-100.8092
  0
VERTEX
  8
LAYER_1
 10
32.8948
 20
-98.8103
  0
SEQEND
  0
POLYLINE
  8
LAYER_1
 40
0.1764
 41
0.1764
 62
1
 66
1
 10
0
 20
0
 30
0
  0
VERTEX
  8
LAYER_1
 10
32.8948
 20
-102.8082
  0
VERTEX
  8
LAYER_1
 10
32.8948
 20
-100.8092
  0
SEQEND
  0
POLYLINE
  8
LAYER_1
 40
0.1764
 41
0.1764
 62
1
 66
1
 10
0
 20
0
 30
0
  0
VERTEX
  8
LAYER_1
 10
32.8948
 20
-104.8071
  0
VERTEX
  8
LAYER_1
 10
32.8948
 20
-102.8082
  0
SEQEND
  0
POLYLINE
  8
LAYER_1
 40
0.1764
 41
0.1764
 62
1
 66
1
 10
0
 20
0
 30
0
  0
VERTEX
  8
LAYER_1
 10
32.8948
 20
-106.806
  0
VERTEX
  8
LAYER_1
 10
32.8948
 20
-104.8071
  0
SEQEND
  0
POLYLINE
  8
LAYER_1
 40
0.1764
 41
0.1764
 62
1
 66
1
 10
0
 20
0
 30
0
  0
VERTEX
  8
LAYER_1
 10
32.8948
 20
-108.8049
  0
VERTEX
  8
LAYER_1
 10
32.8948
 20
-106.806
  0
SEQEND
  0
POLYLINE
  8
LAYER_1
 40
0.1764
 41
0.1764
 62
1
 66
1
 10
0
 20
0
 30
0
  0
VERTEX
  8
LAYER_1
 10
32.8948
 20
-96.8113
  0
VERTEX
  8
LAYER_1
 10
26.0255
 20
-100.7753
  0
SEQEND
  0
POLYLINE
  8
LAYER_1
 40
0.1764
 41
0.1764
 62
1
 66
1
 10
0
 20
0
 30
0
  0
VERTEX
  8
LAYER_1
 10
32.8948
 20
-98.8103
  0
VERTEX
  8
LAYER_1
 10
26.2542
 20
-102.6472
  0
SEQEND
  0
POLYLINE
  8
LAYER_1
 40
0.1764
 41
0.1764
 62
1
 66
1
 10
0
 20
0
 30
0
  0
VERTEX
  8
LAYER_1
 10
32.8948
 20
-100.8092
  0
VERTEX
  8
LAYER_1
 10
26.322
 20
-104.6038
  0
SEQEND
  0
POLYLINE
  8
LAYER_1
 40
0.1764
 41
0.1764
 62
1
 66
1
 10
0
 20
0
 30
0
  0
VERTEX
  8
LAYER_1
 10
25.9662
 20
-106.806
  0
VERTEX
  8
LAYER_1
 10
25.9662
 20
-98.8103
  0
SEQEND
  0
POLYLINE
  8
LAYER_1
 40
0.1764
 41
0.1764
 62
1
 66
1
 10
0
 20
0
 30
0
  0
VERTEX
  8
LAYER_1
 10
26.3982
 20
-98.5646
  0
VERTEX
  8
LAYER_1
 10
25.9662
 20
-98.8103
  0
SEQEND
  0
POLYLINE
  8
LAYER_1
 40
0.1764
 41
0.1764
 62
1
 66
1
 10
0
 20
0
 30
0
  0
VERTEX
  8
LAYER_1
 10
26.2542
 20
-102.6472
  0
VERTEX
  8
LAYER_1
 10
25.9662
 20
-102.8081
  0
SEQEND
  0
POLYLINE
  8
LAYER_1
 40
0.1764
 41
0.1764
 62
1
 66
1
 10
0
 20
0
 30
0
  0
VERTEX
  8
LAYER_1
 10
26.322
 20
-104.6038
  0
VERTEX
  8
LAYER_1
 10
25.9662
 20
-104.8071
  0
SEQEND
  0
POLYLINE
  8
LAYER_1
 40
0.1764
 41
0.1764
 62
1
 66
1
 10
0
 20
0
 30
0
  0
VERTEX
  8
LAYER_1
 10
32.8948
 20
-110.8123
  0
VERTEX
  8
LAYER_1
 10
25.9662
 20
-106.806
  0
SEQEND
  0
POLYLINE
  8
LAYER_1
 40
0.1764
 41
0.1764
 62
1
 66
1
 10
0
 20
0
 30
0
  0
VERTEX
  8
LAYER_1
 10
32.8948
 20
-102.8081
  0
VERTEX
  8
LAYER_1
 10
25.9662
 20
-106.806
  0
SEQEND
  0
POLYLINE
  8
LAYER_1
 40
0.1764
 41
0.1764
 62
1
 66
1
 10
0
 20
0
 30
0
  0
VERTEX
  8
LAYER_1
 10
32.8948
 20
-104.8071
  0
VERTEX
  8
LAYER_1
 10
31.1669
 20
-103.8076
  0
SEQEND
  0
POLYLINE
  8
LAYER_1
 40
0.1764
 41
0.1764
 62
1
 66
1
 10
0
 20
0
 30
0
  0
VERTEX
  8
LAYER_1
 10
32.8948
 20
-106.806
  0
VERTEX
  8
LAYER_1
 10
29.4305
 20
-104.8071
  0
SEQEND
  0
POLYLINE
  8
LAYER_1
 40
0.1764
 41
0.1764
 62
1
 66
1
 10
0
 20
0
 30
0
  0
VERTEX
  8
LAYER_1
 10
32.8948
 20
-108.8049
  0
VERTEX
  8
LAYER_1
 10
27.7026
 20
-105.8065
  0
SEQEND
  0
TEXT
  8
LAYER_1
 10
31.0184
 20
-103.6205
 11
31.0184
 21
-103.6205
 40
4.1737
 41
0.5
 50
89.99999999
  1
B
  0
ENDBLK
  0
BLOCK
  8
LAYER_1
  2
AIGNBL01010023
 70
64
 10
0
 20
0
 30
0
  3
AIGNBL01010023
  0
INSERT
  8
LAYER_1
  2
AIGNBL01020024
 10
0
 20
0
 30
0
  0
TEXT
  8
LAYER_1
 10
28.0482
 20
-113.6169
 11
28.0482
 21
-113.6169
 40
4.1737
 41
0.5
 50
270
  1
A
  0
ENDBLK
  0
BLOCK
  8
LAYER_1
  2
AIGNBL01010025
 70
64
 10
0
 20
0
 30
0
  3
AIGNBL01010025
  0
POLYLINE
  8
LAYER_1
 40
0.1764
 41
0.1764
 62
1
 66
1
 10
0
 20
0
 30
0
  0
VERTEX
  8
LAYER_1
 10
25.4662
 20
-123.3146
  0
VERTEX
  8
LAYER_1
 10
25.4662
 20
-107.3147
  0
VERTEX
  8
LAYER_1
 10
18.9697
 20
-111.0669
  0
SEQEND
  0
POLYLINE
  8
LAYER_1
 40
0.1764
 41
0.1764
 62
1
 66
1
 10
0
 20
0
 30
0
  0
VERTEX
  8
LAYER_1
 10
25.4662
 20
-109.3136
  0
VERTEX
  8
LAYER_1
 10
25.4662
 20
-107.3147
  0
SEQEND
  0
POLYLINE
  8
LAYER_1
 40
0.1764
 41
0.1764
 62
1
 66
1
 10
0
 20
0
 30
0
  0
VERTEX
  8
LAYER_1
 10
25.4662
 20
-111.3126
  0
VERTEX
  8
LAYER_1
 10
25.4662
 20
-109.3136
  0
SEQEND
  0
POLYLINE
  8
LAYER_1
 40
0.1764
 41
0.1764
 62
1
 66
1
 10
0
 20
0
 30
0
  0
VERTEX
  8
LAYER_1
 10
25.4662
 20
-113.3115
  0
VERTEX
  8
LAYER_1
 10
25.4662
 20
-111.3126
  0
SEQEND
  0
POLYLINE
  8
LAYER_1
 40
0.1764
 41
0.1764
 62
1
 66
1
 10
0
 20
0
 30
0
  0
VERTEX
  8
LAYER_1
 10
25.4662
 20
-115.3104
  0
VERTEX
  8
LAYER_1
 10
25.4662
 20
-113.3115
  0
SEQEND
  0
POLYLINE
  8
LAYER_1
 40
0.1764
 41
0.1764
 62
1
 66
1
 10
0
 20
0
 30
0
  0
VERTEX
  8
LAYER_1
 10
25.4662
 20
-117.3093
  0
VERTEX
  8
LAYER_1
 10
25.4662
 20
-115.3104
  0
SEQEND
  0
POLYLINE
  8
LAYER_1
 40
0.1764
 41
0.1764
 62
1
 66
1
 10
0
 20
0
 30
0
  0
VERTEX
  8
LAYER_1
 10
25.4662
 20
-119.3083
  0
VERTEX
  8
LAYER_1
 10
25.4662
 20
-117.3093
  0
SEQEND
  0
POLYLINE
  8
LAYER_1
 40
0.1764
 41
0.1764
 62
1
 66
1
 10
0
 20
0
 30
0
  0
VERTEX
  8
LAYER_1
 10
25.4662
 20
-121.3072
  0
VERTEX
  8
LAYER_1
 10
25.4662
 20
-119.3083
  0
SEQEND
  0
POLYLINE
  8
LAYER_1
 40
0.1764
 41
0.1764
 62
1
 66
1
 10
0
 20
0
 30
0
  0
VERTEX
  8
LAYER_1
 10
25.4662
 20
-109.3136
  0
VERTEX
  8
LAYER_1
 10
18.597
 20
-113.2776
  0
SEQEND
  0
POLYLINE
  8
LAYER_1
 40
0.1764
 41
0.1764
 62
1
 66
1
 10
0
 20
0
 30
0
  0
VERTEX
  8
LAYER_1
 10
25.4662
 20
-111.3125
  0
VERTEX
  8
LAYER_1
 10
18.8257
 20
-115.1495
  0
SEQEND
  0
POLYLINE
  8
LAYER_1
 40
0.1764
 41
0.1764
 62
1
 66
1
 10
0
 20
0
 30
0
  0
VERTEX
  8
LAYER_1
 10
25.4662
 20
-113.3115
  0
VERTEX
  8
LAYER_1
 10
18.8935
 20
-117.106
  0
SEQEND
  0
POLYLINE
  8
LAYER_1
 40
0.1764
 41
0.1764
 62
1
 66
1
 10
0
 20
0
 30
0
  0
VERTEX
  8
LAYER_1
 10
18.5377
 20
-119.3083
  0
VERTEX
  8
LAYER_1
 10
18.5377
 20
-111.3125
  0
SEQEND
  0
POLYLINE
  8
LAYER_1
 40
0.1764
 41
0.1764
 62
1
 66
1
 10
0
 20
0
 30
0
  0
VERTEX
  8
LAYER_1
 10
18.9697
 20
-111.0669
  0
VERTEX
  8
LAYER_1
 10
18.5377
 20
-111.3125
  0
SEQEND
  0
POLYLINE
  8
LAYER_1
 40
0.1764
 41
0.1764
 62
1
 66
1
 10
0
 20
0
 30
0
  0
VERTEX
  8
LAYER_1
 10
18.8257
 20
-115.1495
  0
VERTEX
  8
LAYER_1
 10
18.5377
 20
-115.3104
  0
SEQEND
  0
POLYLINE
  8
LAYER_1
 40
0.1764
 41
0.1764
 62
1
 66
1
 10
0
 20
0
 30
0
  0
VERTEX
  8
LAYER_1
 10
18.8935
 20
-117.106
  0
VERTEX
  8
LAYER_1
 10
18.5377
 20
-117.3093
  0
SEQEND
  0
POLYLINE
  8
LAYER_1
 40
0.1764
 41
0.1764
 62
1
 66
1
 10
0
 20
0
 30
0
  0
VERTEX
  8
LAYER_1
 10
25.4662
 20
-123.3146
  0
VERTEX
  8
LAYER_1
 10
18.5377
 20
-119.3082
  0
SEQEND
  0
POLYLINE
  8
LAYER_1
 40
0.1764
 41
0.1764
 62
1
 66
1
 10
0
 20
0
 30
0
  0
VERTEX
  8
LAYER_1
 10
25.4662
 20
-115.3104
  0
VERTEX
  8
LAYER_1
 10
18.5377
 20
-119.3082
  0
SEQEND
  0
POLYLINE
  8
LAYER_1
 40
0.1764
 41
0.1764
 62
1
 66
1
 10
0
 20
0
 30
0
  0
VERTEX
  8
LAYER_1
 10
25.4662
 20
-117.3093
  0
VERTEX
  8
LAYER_1
 10
23.7384
 20
-116.3098
  0
SEQEND
  0
POLYLINE
  8
LAYER_1
 40
0.1764
 41
0.1764
 62
1
 66
1
 10
0
 20
0
 30
0
  0
VERTEX
  8
LAYER_1
 10
25.4662
 20
-119.3082
  0
VERTEX
  8
LAYER_1
 10
22.002
 20
-117.3093
  0
SEQEND
  0
POLYLINE
  8
LAYER_1
 40
0.1764
 41
0.1764
 62
1
 66
1
 10
0
 20
0
 30
0
  0
VERTEX
  8
LAYER_1
 10
25.4662
 20
-121.3072
  0
VERTEX
  8
LAYER_1
 10
20.2741
 20
-118.3088
  0
SEQEND
  0
TEXT
  8
LAYER_1
 10
23.5899
 20
-116.1228
 11
23.5899
 21
-116.1228
 40
4.1737
 41
0.5
 50
89.99999999
  1
B
  0
ENDBLK
  0
BLOCK
  8
LAYER_1
  2
AIGNBL01010026
 70
64
 10
0
 20
0
 30
0
  3
AIGNBL01010026
  0
INSERT
  8
LAYER_1
  2
AIGNBL01020027
 10
0
 20
0
 30
0
  0
TEXT
  8
LAYER_1
 10
-9.2084
 20
-126.1107
 11
-9.2084
 21
-126.1107
 40
4.1737
 41
0.5
 50
270
  1
A
  0
ENDBLK
  0
BLOCK
  8
LAYER_1
  2
AIGNBL01010028
 70
64
 10
0
 20
0
 30
0
  3
AIGNBL01010028
  0
POLYLINE
  8
LAYER_1
 40
0.1764
 41
0.1764
 62
1
 66
1
 10
0
 20
0
 30
0
  0
VERTEX
  8
LAYER_1
 10
3.1044
 20
-135.808
  0
VERTEX
  8
LAYER_1
 10
3.1044
 20
-119.8081
  0
VERTEX
  8
LAYER_1
 10
-3.3921
 20
-123.5603
  0
SEQEND
  0
POLYLINE
  8
LAYER_1
 40
0.1764
 41
0.1764
 62
1
 66
1
 10
0
 20
0
 30
0
  0
VERTEX
  8
LAYER_1
 10
3.1044
 20
-121.807
  0
VERTEX
  8
LAYER_1
 10
3.1044
 20
-119.8081
  0
SEQEND
  0
POLYLINE
  8
LAYER_1
 40
0.1764
 41
0.1764
 62
1
 66
1
 10
0
 20
0
 30
0
  0
VERTEX
  8
LAYER_1
 10
3.1044
 20
-123.806
  0
VERTEX
  8
LAYER_1
 10
3.1044
 20
-121.807
  0
SEQEND
  0
POLYLINE
  8
LAYER_1
 40
0.1764
 41
0.1764
 62
1
 66
1
 10
0
 20
0
 30
0
  0
VERTEX
  8
LAYER_1
 10
3.1044
 20
-125.8049
  0
VERTEX
  8
LAYER_1
 10
3.1044
 20
-123.806
  0
SEQEND
  0
POLYLINE
  8
LAYER_1
 40
0.1764
 41
0.1764
 62
1
 66
1
 10
0
 20
0
 30
0
  0
VERTEX
  8
LAYER_1
 10
3.1044
 20
-127.8038
  0
VERTEX
  8
LAYER_1
 10
3.1044
 20
-125.8049
  0
SEQEND
  0
POLYLINE
  8
LAYER_1
 40
0.1764
 41
0.1764
 62
1
 66
1
 10
0
 20
0
 30
0
  0
VERTEX
  8
LAYER_1
 10
3.1044
 20
-129.8028
  0
VERTEX
  8
LAYER_1
 10
3.1044
 20
-127.8038
  0
SEQEND
  0
POLYLINE
  8
LAYER_1
 40
0.1764
 41
0.1764
 62
1
 66
1
 10
0
 20
0
 30
0
  0
VERTEX
  8
LAYER_1
 10
3.1044
 20
-131.8017
  0
VERTEX
  8
LAYER_1
 10
3.1044
 20
-129.8028
  0
SEQEND
  0
POLYLINE
  8
LAYER_1
 40
0.1764
 41
0.1764
 62
1
 66
1
 10
0
 20
0
 30
0
  0
VERTEX
  8
LAYER_1
 10
3.1044
 20
-133.8006
  0
VERTEX
  8
LAYER_1
 10
3.1044
 20
-131.8017
  0
SEQEND
  0
POLYLINE
  8
LAYER_1
 40
0.1764
 41
0.1764
 62
1
 66
1
 10
0
 20
0
 30
0
  0
VERTEX
  8
LAYER_1
 10
3.1044
 20
-121.807
  0
VERTEX
  8
LAYER_1
 10
-3.7648
 20
-125.771
  0
SEQEND
  0
POLYLINE
  8
LAYER_1
 40
0.1764
 41
0.1764
 62
1
 66
1
 10
0
 20
0
 30
0
  0
VERTEX
  8
LAYER_1
 10
3.1044
 20
-123.8059
  0
VERTEX
  8
LAYER_1
 10
-3.5361
 20
-127.6429
  0
SEQEND
  0
POLYLINE
  8
LAYER_1
 40
0.1764
 41
0.1764
 62
1
 66
1
 10
0
 20
0
 30
0
  0
VERTEX
  8
LAYER_1
 10
3.1044
 20
-125.8049
  0
VERTEX
  8
LAYER_1
 10
-3.4684
 20
-129.5995
  0
SEQEND
  0
POLYLINE
  8
LAYER_1
 40
0.1764
 41
0.1764
 62
1
 66
1
 10
0
 20
0
 30
0
  0
VERTEX
  8
LAYER_1
 10
-3.8241
 20
-131.8017
  0
VERTEX
  8
LAYER_1
 10
-3.8241
 20
-123.8059
  0
SEQEND
  0
POLYLINE
  8
LAYER_1
 40
0.1764
 41
0.1764
 62
1
 66
1
 10
0
 20
0
 30
0
  0
VERTEX
  8
LAYER_1
 10
-3.3921
 20
-123.5603
  0
VERTEX
  8
LAYER_1
 10
-3.8241
 20
-123.8059
  0
SEQEND
  0
POLYLINE
  8
LAYER_1
 40
0.1764
 41
0.1764
 62
1
 66
1
 10
0
 20
0
 30
0
  0
VERTEX
  8
LAYER_1
 10
-3.5361
 20
-127.6429
  0
VERTEX
  8
LAYER_1
 10
-3.8241
 20
-127.8038
  0
SEQEND
  0
POLYLINE
  8
LAYER_1
 40
0.1764
 41
0.1764
 62
1
 66
1
 10
0
 20
0
 30
0
  0
VERTEX
  8
LAYER_1
 10
-3.4684
 20
-129.5994
  0
VERTEX
  8
LAYER_1
 10
-3.8241
 20
-129.8027
  0
SEQEND
  0
POLYLINE
  8
LAYER_1
 40
0.1764
 41
0.1764
 62
1
 66
1
 10
0
 20
0
 30
0
  0
VERTEX
  8
LAYER_1
 10
3.1044
 20
-135.808
  0
VERTEX
  8
LAYER_1
 10
-3.8241
 20
-131.8017
  0
SEQEND
  0
POLYLINE
  8
LAYER_1
 40
0.1764
 41
0.1764
 62
1
 66
1
 10
0
 20
0
 30
0
  0
VERTEX
  8
LAYER_1
 10
3.1044
 20
-127.8038
  0
VERTEX
  8
LAYER_1
 10
-3.8241
 20
-131.8017
  0
SEQEND
  0
POLYLINE
  8
LAYER_1
 40
0.1764
 41
0.1764
 62
1
 66
1
 10
0
 20
0
 30
0
  0
VERTEX
  8
LAYER_1
 10
3.1044
 20
-129.8027
  0
VERTEX
  8
LAYER_1
 10
1.3765
 20
-128.8033
  0
SEQEND
  0
POLYLINE
  8
LAYER_1
 40
0.1764
 41
0.1764
 62
1
 66
1
 10
0
 20
0
 30
0
  0
VERTEX
  8
LAYER_1
 10
3.1044
 20
-131.8017
  0
VERTEX
  8
LAYER_1
 10
-0.3598
 20
-129.8027
  0
SEQEND
  0
POLYLINE
  8
LAYER_1
 40
0.1764
 41
0.1764
 62
1
 66
1
 10
0
 20
0
 30
0
  0
VERTEX
  8
LAYER_1
 10
3.1044
 20
-133.8006
  0
VERTEX
  8
LAYER_1
 10
-2.0877
 20
-130.8022
  0
SEQEND
  0
TEXT
  8
LAYER_1
 10
1.2281
 20
-128.6161
 11
1.2281
 21
-128.6161
 40
4.1737
 41
0.5
 50
89.99999999
  1
B
  0
ENDBLK
  0
BLOCK
  8
LAYER_1
  2
AIGNBL01010029
 70
64
 10
0
 20
0
 30
0
  3
AIGNBL01010029
  0
INSERT
  8
LAYER_1
  2
AIGNBL0102002A
 10
0
 20
0
 30
0
  0
TEXT
  8
LAYER_1
 10
-1.7422
 20
-138.6126
 11
-1.7422
 21
-138.6126
 40
4.1737
 41
0.5
 50
270
  1
A
  0
ENDBLK
  0
BLOCK
  8
LAYER_1
  2
AIGNBL0101002B
 70
64
 10
0
 20
0
 30
0
  3
AIGNBL0101002B
  0
POLYLINE
  8
LAYER_1
 40
0.1764
 41
0.1764
 62
1
 66
1
 10
0
 20
0
 30
0
  0
VERTEX
  8
LAYER_1
 10
-4.3241
 20
-148.3103
  0
VERTEX
  8
LAYER_1
 10
-4.3241
 20
-132.3104
  0
VERTEX
  8
LAYER_1
 10
-10.8206
 20
-136.0626
  0
SEQEND
  0
POLYLINE
  8
LAYER_1
 40
0.1764
 41
0.1764
 62
1
 66
1
 10
0
 20
0
 30
0
  0
VERTEX
  8
LAYER_1
 10
-4.3241
 20
-134.3093
  0
VERTEX
  8
LAYER_1
 10
-4.3241
 20
-132.3104
  0
SEQEND
  0
POLYLINE
  8
LAYER_1
 40
0.1764
 41
0.1764
 62
1
 66
1
 10
0
 20
0
 30
0
  0
VERTEX
  8
LAYER_1
 10
-4.3241
 20
-136.3082
  0
VERTEX
  8
LAYER_1
 10
-4.3241
 20
-134.3093
  0
SEQEND
  0
POLYLINE
  8
LAYER_1
 40
0.1764
 41
0.1764
 62
1
 66
1
 10
0
 20
0
 30
0
  0
VERTEX
  8
LAYER_1
 10
-4.3241
 20
-138.3071
  0
VERTEX
  8
LAYER_1
 10
-4.3241
 20
-136.3082
  0
SEQEND
  0
POLYLINE
  8
LAYER_1
 40
0.1764
 41
0.1764
 62
1
 66
1
 10
0
 20
0
 30
0
  0
VERTEX
  8
LAYER_1
 10
-4.3241
 20
-140.3061
  0
VERTEX
  8
LAYER_1
 10
-4.3241
 20
-138.3071
  0
SEQEND
  0
POLYLINE
  8
LAYER_1
 40
0.1764
 41
0.1764
 62
1
 66
1
 10
0
 20
0
 30
0
  0
VERTEX
  8
LAYER_1
 10
-4.3241
 20
-142.305
  0
VERTEX
  8
LAYER_1
 10
-4.3241
 20
-140.3061
  0
SEQEND
  0
POLYLINE
  8
LAYER_1
 40
0.1764
 41
0.1764
 62
1
 66
1
 10
0
 20
0
 30
0
  0
VERTEX
  8
LAYER_1
 10
-4.3241
 20
-144.3039
  0
VERTEX
  8
LAYER_1
 10
-4.3241
 20
-142.305
  0
SEQEND
  0
POLYLINE
  8
LAYER_1
 40
0.1764
 41
0.1764
 62
1
 66
1
 10
0
 20
0
 30
0
  0
VERTEX
  8
LAYER_1
 10
-4.3241
 20
-146.3029
  0
VERTEX
  8
LAYER_1
 10
-4.3241
 20
-144.3039
  0
SEQEND
  0
POLYLINE
  8
LAYER_1
 40
0.1764
 41
0.1764
 62
1
 66
1
 10
0
 20
0
 30
0
  0
VERTEX
  8
LAYER_1
 10
-4.3241
 20
-134.3093
  0
VERTEX
  8
LAYER_1
 10
-11.1933
 20
-138.2733
  0
SEQEND
  0
POLYLINE
  8
LAYER_1
 40
0.1764
 41
0.1764
 62
1
 66
1
 10
0
 20
0
 30
0
  0
VERTEX
  8
LAYER_1
 10
-4.3241
 20
-136.3082
  0
VERTEX
  8
LAYER_1
 10
-10.9646
 20
-140.1451
  0
SEQEND
  0
POLYLINE
  8
LAYER_1
 40
0.1764
 41
0.1764
 62
1
 66
1
 10
0
 20
0
 30
0
  0
VERTEX
  8
LAYER_1
 10
-4.3241
 20
-138.3071
  0
VERTEX
  8
LAYER_1
 10
-10.8969
 20
-142.1017
  0
SEQEND
  0
POLYLINE
  8
LAYER_1
 40
0.1764
 41
0.1764
 62
1
 66
1
 10
0
 20
0
 30
0
  0
VERTEX
  8
LAYER_1
 10
-11.2526
 20
-144.3039
  0
VERTEX
  8
LAYER_1
 10
-11.2526
 20
-136.3082
  0
SEQEND
  0
POLYLINE
  8
LAYER_1
 40
0.1764
 41
0.1764
 62
1
 66
1
 10
0
 20
0
 30
0
  0
VERTEX
  8
LAYER_1
 10
-10.8206
 20
-136.0626
  0
VERTEX
  8
LAYER_1
 10
-11.2526
 20
-136.3082
  0
SEQEND
  0
POLYLINE
  8
LAYER_1
 40
0.1764
 41
0.1764
 62
1
 66
1
 10
0
 20
0
 30
0
  0
VERTEX
  8
LAYER_1
 10
-10.9646
 20
-140.1451
  0
VERTEX
  8
LAYER_1
 10
-11.2526
 20
-140.3061
  0
SEQEND
  0
POLYLINE
  8
LAYER_1
 40
0.1764
 41
0.1764
 62
1
 66
1
 10
0
 20
0
 30
0
  0
VERTEX
  8
LAYER_1
 10
-10.8969
 20
-142.1017
  0
VERTEX
  8
LAYER_1
 10
-11.2526
 20
-142.305
  0
SEQEND
  0
POLYLINE
  8
LAYER_1
 40
0.1764
 41
0.1764
 62
1
 66
1
 10
0
 20
0
 30
0
  0
VERTEX
  8
LAYER_1
 10
-4.3241
 20
-148.3102
  0
VERTEX
  8
LAYER_1
 10
-11.2526
 20
-144.3039
  0
SEQEND
  0
POLYLINE
  8
LAYER_1
 40
0.1764
 41
0.1764
 62
1
 66
1
 10
0
 20
0
 30
0
  0
VERTEX
  8
LAYER_1
 10
-4.3241
 20
-140.306
  0
VERTEX
  8
LAYER_1
 10
-11.2526
 20
-144.3039
  0
SEQEND
  0
POLYLINE
  8
LAYER_1
 40
0.1764
 41
0.1764
 62
1
 66
1
 10
0
 20
0
 30
0
  0
VERTEX
  8
LAYER_1
 10
-4.3241
 20
-142.305
  0
VERTEX
  8
LAYER_1
 10
-6.052
 20
-141.3055
  0
SEQEND
  0
POLYLINE
  8
LAYER_1
 40
0.1764
 41
0.1764
 62
1
 66
1
 10
0
 20
0
 30
0
  0
VERTEX
  8
LAYER_1
 10
-4.3241
 20
-144.3039
  0
VERTEX
  8
LAYER_1
 10
-7.7883
 20
-142.305
  0
SEQEND
  0
POLYLINE
  8
LAYER_1
 40
0.1764
 41
0.1764
 62
1
 66
1
 10
0
 20
0
 30
0
  0
VERTEX
  8
LAYER_1
 10
-4.3241
 20
-146.3028
  0
VERTEX
  8
LAYER_1
 10
-9.5162
 20
-143.3044
  0
SEQEND
  0
TEXT
  8
LAYER_1
 10
-6.2004
 20
-141.1183
 11
-6.2004
 21
-141.1183
 40
4.1737
 41
0.5
 50
89.99999999
  1
B
  0
ENDBLK
  0
BLOCK
  8
LAYER_1
  2
AIGNBL0101002C
 70
64
 10
0
 20
0
 30
0
  3
AIGNBL0101002C
  0
INSERT
  8
LAYER_1
  2
AIGNBL0102002D
 10
0
 20
0
 30
0
  0
TEXT
  8
LAYER_1
 10
5.6868
 20
-126.1107
 11
5.6868
 21
-126.1107
 40
4.1737
 41
0.5
 50
270
  1
A
  0
ENDBLK
  0
BLOCK
  8
LAYER_1
  2
AIGNBL0101002E
 70
64
 10
0
 20
0
 30
0
  3
AIGNBL0101002E
  0
POLYLINE
  8
LAYER_1
 40
0.1764
 41
0.1764
 62
1
 66
1
 10
0
 20
0
 30
0
  0
VERTEX
  8
LAYER_1
 10
17.9996
 20
-135.808
  0
VERTEX
  8
LAYER_1
 10
17.9996
 20
-119.8081
  0
VERTEX
  8
LAYER_1
 10
11.5031
 20
-123.5603
  0
SEQEND
  0
POLYLINE
  8
LAYER_1
 40
0.1764
 41
0.1764
 62
1
 66
1
 10
0
 20
0
 30
0
  0
VERTEX
  8
LAYER_1
 10
17.9996
 20
-121.807
  0
VERTEX
  8
LAYER_1
 10
17.9996
 20
-119.8081
  0
SEQEND
  0
POLYLINE
  8
LAYER_1
 40
0.1764
 41
0.1764
 62
1
 66
1
 10
0
 20
0
 30
0
  0
VERTEX
  8
LAYER_1
 10
17.9996
 20
-123.806
  0
VERTEX
  8
LAYER_1
 10
17.9996
 20
-121.807
  0
SEQEND
  0
POLYLINE
  8
LAYER_1
 40
0.1764
 41
0.1764
 62
1
 66
1
 10
0
 20
0
 30
0
  0
VERTEX
  8
LAYER_1
 10
17.9996
 20
-125.8049
  0
VERTEX
  8
LAYER_1
 10
17.9996
 20
-123.806
  0
SEQEND
  0
POLYLINE
  8
LAYER_1
 40
0.1764
 41
0.1764
 62
1
 66
1
 10
0
 20
0
 30
0
  0
VERTEX
  8
LAYER_1
 10
17.9996
 20
-127.8038
  0
VERTEX
  8
LAYER_1
 10
17.9996
 20
-125.8049
  0
SEQEND
  0
POLYLINE
  8
LAYER_1
 40
0.1764
 41
0.1764
 62
1
 66
1
 10
0
 20
0
 30
0
  0
VERTEX
  8
LAYER_1
 10
17.9996
 20
-129.8028
  0
VERTEX
  8
LAYER_1
 10
17.9996
 20
-127.8038
  0
SEQEND
  0
POLYLINE
  8
LAYER_1
 40
0.1764
 41
0.1764
 62
1
 66
1
 10
0
 20
0
 30
0
  0
VERTEX
  8
LAYER_1
 10
17.9996
 20
-131.8017
  0
VERTEX
  8
LAYER_1
 10
17.9996
 20
-129.8028
  0
SEQEND
  0
POLYLINE
  8
LAYER_1
 40
0.1764
 41
0.1764
 62
1
 66
1
 10
0
 20
0
 30
0
  0
VERTEX
  8
LAYER_1
 10
17.9996
 20
-133.8006
  0
VERTEX
  8
LAYER_1
 10
17.9996
 20
-131.8017
  0
SEQEND
  0
POLYLINE
  8
LAYER_1
 40
0.1764
 41
0.1764
 62
1
 66
1
 10
0
 20
0
 30
0
  0
VERTEX
  8
LAYER_1
 10
17.9996
 20
-121.807
  0
VERTEX
  8
LAYER_1
 10
11.1304
 20
-125.771
  0
SEQEND
  0
POLYLINE
  8
LAYER_1
 40
0.1764
 41
0.1764
 62
1
 66
1
 10
0
 20
0
 30
0
  0
VERTEX
  8
LAYER_1
 10
17.9996
 20
-123.8059
  0
VERTEX
  8
LAYER_1
 10
11.3591
 20
-127.6429
  0
SEQEND
  0
POLYLINE
  8
LAYER_1
 40
0.1764
 41
0.1764
 62
1
 66
1
 10
0
 20
0
 30
0
  0
VERTEX
  8
LAYER_1
 10
17.9996
 20
-125.8049
  0
VERTEX
  8
LAYER_1
 10
11.4268
 20
-129.5995
  0
SEQEND
  0
POLYLINE
  8
LAYER_1
 40
0.1764
 41
0.1764
 62
1
 66
1
 10
0
 20
0
 30
0
  0
VERTEX
  8
LAYER_1
 10
11.0711
 20
-131.8017
  0
VERTEX
  8
LAYER_1
 10
11.0711
 20
-123.8059
  0
SEQEND
  0
POLYLINE
  8
LAYER_1
 40
0.1764
 41
0.1764
 62
1
 66
1
 10
0
 20
0
 30
0
  0
VERTEX
  8
LAYER_1
 10
11.503
 20
-123.5603
  0
VERTEX
  8
LAYER_1
 10
11.0711
 20
-123.8059
  0
SEQEND
  0
POLYLINE
  8
LAYER_1
 40
0.1764
 41
0.1764
 62
1
 66
1
 10
0
 20
0
 30
0
  0
VERTEX
  8
LAYER_1
 10
11.3591
 20
-127.6429
  0
VERTEX
  8
LAYER_1
 10
11.0711
 20
-127.8038
  0
SEQEND
  0
POLYLINE
  8
LAYER_1
 40
0.1764
 41
0.1764
 62
1
 66
1
 10
0
 20
0
 30
0
  0
VERTEX
  8
LAYER_1
 10
11.4268
 20
-129.5994
  0
VERTEX
  8
LAYER_1
 10
11.0711
 20
-129.8027
  0
SEQEND
  0
POLYLINE
  8
LAYER_1
 40
0.1764
 41
0.1764
 62
1
 66
1
 10
0
 20
0
 30
0
  0
VERTEX
  8
LAYER_1
 10
17.9996
 20
-135.808
  0
VERTEX
  8
LAYER_1
 10
11.0711
 20
-131.8017
  0
SEQEND
  0
POLYLINE
  8
LAYER_1
 40
0.1764
 41
0.1764
 62
1
 66
1
 10
0
 20
0
 30
0
  0
VERTEX
  8
LAYER_1
 10
17.9996
 20
-127.8038
  0
VERTEX
  8
LAYER_1
 10
11.0711
 20
-131.8017
  0
SEQEND
  0
POLYLINE
  8
LAYER_1
 40
0.1764
 41
0.1764
 62
1
 66
1
 10
0
 20
0
 30
0
  0
VERTEX
  8
LAYER_1
 10
17.9996
 20
-129.8027
  0
VERTEX
  8
LAYER_1
 10
16.2717
 20
-128.8033
  0
SEQEND
  0
POLYLINE
  8
LAYER_1
 40
0.1764
 41
0.1764
 62
1
 66
1
 10
0
 20
0
 30
0
  0
VERTEX
  8
LAYER_1
 10
17.9996
 20
-131.8017
  0
VERTEX
  8
LAYER_1
 10
14.5353
 20
-129.8027
  0
SEQEND
  0
POLYLINE
  8
LAYER_1
 40
0.1764
 41
0.1764
 62
1
 66
1
 10
0
 20
0
 30
0
  0
VERTEX
  8
LAYER_1
 10
17.9996
 20
-133.8006
  0
VERTEX
  8
LAYER_1
 10
12.8074
 20
-130.8022
  0
SEQEND
  0
TEXT
  8
LAYER_1
 10
16.1233
 20
-128.6161
 11
16.1233
 21
-128.6161
 40
4.1737
 41
0.5
 50
89.99999999
  1
B
  0
ENDBLK
  0
BLOCK
  8
LAYER_1
  2
AIGNBL0101002F
 70
64
 10
0
 20
0
 30
0
  3
AIGNBL0101002F
  0
INSERT
  8
LAYER_1
  2
AIGNBL01020030
 10
0
 20
0
 30
0
  0
TEXT
  8
LAYER_1
 10
13.153
 20
-138.6126
 11
13.153
 21
-138.6126
 40
4.1737
 41
0.5
 50
270
  1
A
  0
ENDBLK
  0
BLOCK
  8
LAYER_1
  2
AIGNBL01010031
 70
64
 10
0
 20
0
 30
0
  3
AIGNBL01010031
  0
POLYLINE
  8
LAYER_1
 40
0.1764
 41
0.1764
 62
1
 66
1
 10
0
 20
0
 30
0
  0
VERTEX
  8
LAYER_1
 10
10.5711
 20
-148.3103
  0
VERTEX
  8
LAYER_1
 10
10.5711
 20
-132.3104
  0
VERTEX
  8
LAYER_1
 10
4.0745
 20
-136.0626
  0
SEQEND
  0
POLYLINE
  8
LAYER_1
 40
0.1764
 41
0.1764
 62
1
 66
1
 10
0
 20
0
 30
0
  0
VERTEX
  8
LAYER_1
 10
10.5711
 20
-134.3093
  0
VERTEX
  8
LAYER_1
 10
10.5711
 20
-132.3104
  0
SEQEND
  0
POLYLINE
  8
LAYER_1
 40
0.1764
 41
0.1764
 62
1
 66
1
 10
0
 20
0
 30
0
  0
VERTEX
  8
LAYER_1
 10
10.5711
 20
-136.3082
  0
VERTEX
  8
LAYER_1
 10
10.5711
 20
-134.3093
  0
SEQEND
  0
POLYLINE
  8
LAYER_1
 40
0.1764
 41
0.1764
 62
1
 66
1
 10
0
 20
0
 30
0
  0
VERTEX
  8
LAYER_1
 10
10.5711
 20
-138.3071
  0
VERTEX
  8
LAYER_1
 10
10.5711
 20
-136.3082
  0
SEQEND
  0
POLYLINE
  8
LAYER_1
 40
0.1764
 41
0.1764
 62
1
 66
1
 10
0
 20
0
 30
0
  0
VERTEX
  8
LAYER_1
 10
10.5711
 20
-140.3061
  0
VERTEX
  8
LAYER_1
 10
10.5711
 20
-138.3071
  0
SEQEND
  0
POLYLINE
  8
LAYER_1
 40
0.1764
 41
0.1764
 62
1
 66
1
 10
0
 20
0
 30
0
  0
VERTEX
  8
LAYER_1
 10
10.5711
 20
-142.305
  0
VERTEX
  8
LAYER_1
 10
10.5711
 20
-140.3061
  0
SEQEND
  0
POLYLINE
  8
LAYER_1
 40
0.1764
 41
0.1764
 62
1
 66
1
 10
0
 20
0
 30
0
  0
VERTEX
  8
LAYER_1
 10
10.5711
 20
-144.3039
  0
VERTEX
  8
LAYER_1
 10
10.5711
 20
-142.305
  0
SEQEND
  0
POLYLINE
  8
LAYER_1
 40
0.1764
 41
0.1764
 62
1
 66
1
 10
0
 20
0
 30
0
  0
VERTEX
  8
LAYER_1
 10
10.5711
 20
-146.3029
  0
VERTEX
  8
LAYER_1
 10
10.5711
 20
-144.3039
  0
SEQEND
  0
POLYLINE
  8
LAYER_1
 40
0.1764
 41
0.1764
 62
1
 66
1
 10
0
 20
0
 30
0
  0
VERTEX
  8
LAYER_1
 10
10.5711
 20
-134.3093
  0
VERTEX
  8
LAYER_1
 10
3.7019
 20
-138.2733
  0
SEQEND
  0
POLYLINE
  8
LAYER_1
 40
0.1764
 41
0.1764
 62
1
 66
1
 10
0
 20
0
 30
0
  0
VERTEX
  8
LAYER_1
 10
10.5711
 20
-136.3082
  0
VERTEX
  8
LAYER_1
 10
3.9306
 20
-140.1451
  0
SEQEND
  0
POLYLINE
  8
LAYER_1
 40
0.1764
 41
0.1764
 62
1
 66
1
 10
0
 20
0
 30
0
  0
VERTEX
  8
LAYER_1
 10
10.5711
 20
-138.3071
  0
VERTEX
  8
LAYER_1
 10
3.9983
 20
-142.1017
  0
SEQEND
  0
POLYLINE
  8
LAYER_1
 40
0.1764
 41
0.1764
 62
1
 66
1
 10
0
 20
0
 30
0
  0
VERTEX
  8
LAYER_1
 10
3.6426
 20
-144.3039
  0
VERTEX
  8
LAYER_1
 10
3.6426
 20
-136.3082
  0
SEQEND
  0
POLYLINE
  8
LAYER_1
 40
0.1764
 41
0.1764
 62
1
 66
1
 10
0
 20
0
 30
0
  0
VERTEX
  8
LAYER_1
 10
4.0745
 20
-136.0626
  0
VERTEX
  8
LAYER_1
 10
3.6426
 20
-136.3082
  0
SEQEND
  0
POLYLINE
  8
LAYER_1
 40
0.1764
 41
0.1764
 62
1
 66
1
 10
0
 20
0
 30
0
  0
VERTEX
  8
LAYER_1
 10
3.9306
 20
-140.1451
  0
VERTEX
  8
LAYER_1
 10
3.6426
 20
-140.3061
  0
SEQEND
  0
POLYLINE
  8
LAYER_1
 40
0.1764
 41
0.1764
 62
1
 66
1
 10
0
 20
0
 30
0
  0
VERTEX
  8
LAYER_1
 10
3.9983
 20
-142.1017
  0
VERTEX
  8
LAYER_1
 10
3.6426
 20
-142.305
  0
SEQEND
  0
POLYLINE
  8
LAYER_1
 40
0.1764
 41
0.1764
 62
1
 66
1
 10
0
 20
0
 30
0
  0
VERTEX
  8
LAYER_1
 10
10.5711
 20
-148.3102
  0
VERTEX
  8
LAYER_1
 10
3.6426
 20
-144.3039
  0
SEQEND
  0
POLYLINE
  8
LAYER_1
 40
0.1764
 41
0.1764
 62
1
 66
1
 10
0
 20
0
 30
0
  0
VERTEX
  8
LAYER_1
 10
10.5711
 20
-140.306
  0
VERTEX
  8
LAYER_1
 10
3.6426
 20
-144.3039
  0
SEQEND
  0
POLYLINE
  8
LAYER_1
 40
0.1764
 41
0.1764
 62
1
 66
1
 10
0
 20
0
 30
0
  0
VERTEX
  8
LAYER_1
 10
10.5711
 20
-142.305
  0
VERTEX
  8
LAYER_1
 10
8.8432
 20
-141.3055
  0
SEQEND
  0
POLYLINE
  8
LAYER_1
 40
0.1764
 41
0.1764
 62
1
 66
1
 10
0
 20
0
 30
0
  0
VERTEX
  8
LAYER_1
 10
10.5711
 20
-144.3039
  0
VERTEX
  8
LAYER_1
 10
7.1068
 20
-142.305
  0
SEQEND
  0
POLYLINE
  8
LAYER_1
 40
0.1764
 41
0.1764
 62
1
 66
1
 10
0
 20
0
 30
0
  0
VERTEX
  8
LAYER_1
 10
10.5711
 20
-146.3028
  0
VERTEX
  8
LAYER_1
 10
5.3789
 20
-143.3044
  0
SEQEND
  0
TEXT
  8
LAYER_1
 10
8.6947
 20
-141.1183
 11
8.6947
 21
-141.1183
 40
4.1737
 41
0.5
 50
89.99999999
  1
B
  0
ENDBLK
  0
BLOCK
  8
LAYER_1
  2
AIGNBL01010032
 70
64
 10
0
 20
0
 30
0
  3
AIGNBL01010032
  0
INSERT
  8
LAYER_1
  2
AIGNBL01020033
 10
0
 20
0
 30
0
  0
TEXT
  8
LAYER_1
 10
20.582
 20
-126.1107
 11
20.582
 21
-126.1107
 40
4.1737
 41
0.5
 50
270
  1
A
  0
ENDBLK
  0
BLOCK
  8
LAYER_1
  2
AIGNBL01010034
 70
64
 10
0
 20
0
 30
0
  3
AIGNBL01010034
  0
POLYLINE
  8
LAYER_1
 40
0.1764
 41
0.1764
 62
1
 66
1
 10
0
 20
0
 30
0
  0
VERTEX
  8
LAYER_1
 10
32.8948
 20
-135.808
  0
VERTEX
  8
LAYER_1
 10
32.8948
 20
-119.8081
  0
VERTEX
  8
LAYER_1
 10
26.3982
 20
-123.5603
  0
SEQEND
  0
POLYLINE
  8
LAYER_1
 40
0.1764
 41
0.1764
 62
1
 66
1
 10
0
 20
0
 30
0
  0
VERTEX
  8
LAYER_1
 10
32.8948
 20
-121.807
  0
VERTEX
  8
LAYER_1
 10
32.8948
 20
-119.8081
  0
SEQEND
  0
POLYLINE
  8
LAYER_1
 40
0.1764
 41
0.1764
 62
1
 66
1
 10
0
 20
0
 30
0
  0
VERTEX
  8
LAYER_1
 10
32.8948
 20
-123.806
  0
VERTEX
  8
LAYER_1
 10
32.8948
 20
-121.807
  0
SEQEND
  0
POLYLINE
  8
LAYER_1
 40
0.1764
 41
0.1764
 62
1
 66
1
 10
0
 20
0
 30
0
  0
VERTEX
  8
LAYER_1
 10
32.8948
 20
-125.8049
  0
VERTEX
  8
LAYER_1
 10
32.8948
 20
-123.806
  0
SEQEND
  0
POLYLINE
  8
LAYER_1
 40
0.1764
 41
0.1764
 62
1
 66
1
 10
0
 20
0
 30
0
  0
VERTEX
  8
LAYER_1
 10
32.8948
 20
-127.8038
  0
VERTEX
  8
LAYER_1
 10
32.8948
 20
-125.8049
  0
SEQEND
  0
POLYLINE
  8
LAYER_1
 40
0.1764
 41
0.1764
 62
1
 66
1
 10
0
 20
0
 30
0
  0
VERTEX
  8
LAYER_1
 10
32.8948
 20
-129.8028
  0
VERTEX
  8
LAYER_1
 10
32.8948
 20
-127.8038
  0
SEQEND
  0
POLYLINE
  8
LAYER_1
 40
0.1764
 41
0.1764
 62
1
 66
1
 10
0
 20
0
 30
0
  0
VERTEX
  8
LAYER_1
 10
32.8948
 20
-131.8017
  0
VERTEX
  8
LAYER_1
 10
32.8948
 20
-129.8028
  0
SEQEND
  0
POLYLINE
  8
LAYER_1
 40
0.1764
 41
0.1764
 62
1
 66
1
 10
0
 20
0
 30
0
  0
VERTEX
  8
LAYER_1
 10
32.8948
 20
-133.8006
  0
VERTEX
  8
LAYER_1
 10
32.8948
 20
-131.8017
  0
SEQEND
  0
POLYLINE
  8
LAYER_1
 40
0.1764
 41
0.1764
 62
1
 66
1
 10
0
 20
0
 30
0
  0
VERTEX
  8
LAYER_1
 10
32.8948
 20
-121.807
  0
VERTEX
  8
LAYER_1
 10
26.0255
 20
-125.771
  0
SEQEND
  0
POLYLINE
  8
LAYER_1
 40
0.1764
 41
0.1764
 62
1
 66
1
 10
0
 20
0
 30
0
  0
VERTEX
  8
LAYER_1
 10
32.8948
 20
-123.8059
  0
VERTEX
  8
LAYER_1
 10
26.2542
 20
-127.6429
  0
SEQEND
  0
POLYLINE
  8
LAYER_1
 40
0.1764
 41
0.1764
 62
1
 66
1
 10
0
 20
0
 30
0
  0
VERTEX
  8
LAYER_1
 10
32.8948
 20
-125.8049
  0
VERTEX
  8
LAYER_1
 10
26.322
 20
-129.5995
  0
SEQEND
  0
POLYLINE
  8
LAYER_1
 40
0.1764
 41
0.1764
 62
1
 66
1
 10
0
 20
0
 30
0
  0
VERTEX
  8
LAYER_1
 10
25.9662
 20
-131.8017
  0
VERTEX
  8
LAYER_1
 10
25.9662
 20
-123.8059
  0
SEQEND
  0
POLYLINE
  8
LAYER_1
 40
0.1764
 41
0.1764
 62
1
 66
1
 10
0
 20
0
 30
0
  0
VERTEX
  8
LAYER_1
 10
26.3982
 20
-123.5603
  0
VERTEX
  8
LAYER_1
 10
25.9662
 20
-123.8059
  0
SEQEND
  0
POLYLINE
  8
LAYER_1
 40
0.1764
 41
0.1764
 62
1
 66
1
 10
0
 20
0
 30
0
  0
VERTEX
  8
LAYER_1
 10
26.2542
 20
-127.6429
  0
VERTEX
  8
LAYER_1
 10
25.9662
 20
-127.8038
  0
SEQEND
  0
POLYLINE
  8
LAYER_1
 40
0.1764
 41
0.1764
 62
1
 66
1
 10
0
 20
0
 30
0
  0
VERTEX
  8
LAYER_1
 10
26.322
 20
-129.5994
  0
VERTEX
  8
LAYER_1
 10
25.9662
 20
-129.8027
  0
SEQEND
  0
POLYLINE
  8
LAYER_1
 40
0.1764
 41
0.1764
 62
1
 66
1
 10
0
 20
0
 30
0
  0
VERTEX
  8
LAYER_1
 10
32.8948
 20
-135.808
  0
VERTEX
  8
LAYER_1
 10
25.9662
 20
-131.8017
  0
SEQEND
  0
POLYLINE
  8
LAYER_1
 40
0.1764
 41
0.1764
 62
1
 66
1
 10
0
 20
0
 30
0
  0
VERTEX
  8
LAYER_1
 10
32.8948
 20
-127.8038
  0
VERTEX
  8
LAYER_1
 10
25.9662
 20
-131.8017
  0
SEQEND
  0
POLYLINE
  8
LAYER_1
 40
0.1764
 41
0.1764
 62
1
 66
1
 10
0
 20
0
 30
0
  0
VERTEX
  8
LAYER_1
 10
32.8948
 20
-129.8027
  0
VERTEX
  8
LAYER_1
 10
31.1669
 20
-128.8033
  0
SEQEND
  0
POLYLINE
  8
LAYER_1
 40
0.1764
 41
0.1764
 62
1
 66
1
 10
0
 20
0
 30
0
  0
VERTEX
  8
LAYER_1
 10
32.8948
 20
-131.8017
  0
VERTEX
  8
LAYER_1
 10
29.4305
 20
-129.8027
  0
SEQEND
  0
POLYLINE
  8
LAYER_1
 40
0.1764
 41
0.1764
 62
1
 66
1
 10
0
 20
0
 30
0
  0
VERTEX
  8
LAYER_1
 10
32.8948
 20
-133.8006
  0
VERTEX
  8
LAYER_1
 10
27.7026
 20
-130.8022
  0
SEQEND
  0
TEXT
  8
LAYER_1
 10
31.0184
 20
-128.6161
 11
31.0184
 21
-128.6161
 40
4.1737
 41
0.5
 50
89.99999999
  1
B
  0
ENDBLK
  0
BLOCK
  8
LAYER_1
  2
AIGNBL01010035
 70
64
 10
0
 20
0
 30
0
  3
AIGNBL01010035
  0
INSERT
  8
LAYER_1
  2
AIGNBL01020036
 10
0
 20
0
 30
0
  0
TEXT
  8
LAYER_1
 10
28.0482
 20
-138.6126
 11
28.0482
 21
-138.6126
 40
4.1737
 41
0.5
 50
270
  1
A
  0
ENDBLK
  0
BLOCK
  8
LAYER_1
  2
AIGNBL01010037
 70
64
 10
0
 20
0
 30
0
  3
AIGNBL01010037
  0
POLYLINE
  8
LAYER_1
 40
0.1764
 41
0.1764
 62
1
 66
1
 10
0
 20
0
 30
0
  0
VERTEX
  8
LAYER_1
 10
25.4662
 20
-148.3103
  0
VERTEX
  8
LAYER_1
 10
25.4662
 20
-132.3104
  0
VERTEX
  8
LAYER_1
 10
18.9697
 20
-136.0626
  0
SEQEND
  0
POLYLINE
  8
LAYER_1
 40
0.1764
 41
0.1764
 62
1
 66
1
 10
0
 20
0
 30
0
  0
VERTEX
  8
LAYER_1
 10
25.4662
 20
-134.3093
  0
VERTEX
  8
LAYER_1
 10
25.4662
 20
-132.3104
  0
SEQEND
  0
POLYLINE
  8
LAYER_1
 40
0.1764
 41
0.1764
 62
1
 66
1
 10
0
 20
0
 30
0
  0
VERTEX
  8
LAYER_1
 10
25.4662
 20
-136.3082
  0
VERTEX
  8
LAYER_1
 10
25.4662
 20
-134.3093
  0
SEQEND
  0
POLYLINE
  8
LAYER_1
 40
0.1764
 41
0.1764
 62
1
 66
1
 10
0
 20
0
 30
0
  0
VERTEX
  8
LAYER_1
 10
25.4662
 20
-138.3071
  0
VERTEX
  8
LAYER_1
 10
25.4662
 20
-136.3082
  0
SEQEND
  0
POLYLINE
  8
LAYER_1
 40
0.1764
 41
0.1764
 62
1
 66
1
 10
0
 20
0
 30
0
  0
VERTEX
  8
LAYER_1
 10
25.4662
 20
-140.3061
  0
VERTEX
  8
LAYER_1
 10
25.4662
 20
-138.3071
  0
SEQEND
  0
POLYLINE
  8
LAYER_1
 40
0.1764
 41
0.1764
 62
1
 66
1
 10
0
 20
0
 30
0
  0
VERTEX
  8
LAYER_1
 10
25.4662
 20
-142.305
  0
VERTEX
  8
LAYER_1
 10
25.4662
 20
-140.3061
  0
SEQEND
  0
POLYLINE
  8
LAYER_1
 40
0.1764
 41
0.1764
 62
1
 66
1
 10
0
 20
0
 30
0
  0
VERTEX
  8
LAYER_1
 10
25.4662
 20
-144.3039
  0
VERTEX
  8
LAYER_1
 10
25.4662
 20
-142.305
  0
SEQEND
  0
POLYLINE
  8
LAYER_1
 40
0.1764
 41
0.1764
 62
1
 66
1
 10
0
 20
0
 30
0
  0
VERTEX
  8
LAYER_1
 10
25.4662
 20
-146.3029
  0
VERTEX
  8
LAYER_1
 10
25.4662
 20
-144.3039
  0
SEQEND
  0
POLYLINE
  8
LAYER_1
 40
0.1764
 41
0.1764
 62
1
 66
1
 10
0
 20
0
 30
0
  0
VERTEX
  8
LAYER_1
 10
25.4662
 20
-134.3093
  0
VERTEX
  8
LAYER_1
 10
18.597
 20
-138.2733
  0
SEQEND
  0
POLYLINE
  8
LAYER_1
 40
0.1764
 41
0.1764
 62
1
 66
1
 10
0
 20
0
 30
0
  0
VERTEX
  8
LAYER_1
 10
25.4662
 20
-136.3082
  0
VERTEX
  8
LAYER_1
 10
18.8257
 20
-140.1451
  0
SEQEND
  0
POLYLINE
  8
LAYER_1
 40
0.1764
 41
0.1764
 62
1
 66
1
 10
0
 20
0
 30
0
  0
VERTEX
  8
LAYER_1
 10
25.4662
 20
-138.3071
  0
VERTEX
  8
LAYER_1
 10
18.8935
 20
-142.1017
  0
SEQEND
  0
POLYLINE
  8
LAYER_1
 40
0.1764
 41
0.1764
 62
1
 66
1
 10
0
 20
0
 30
0
  0
VERTEX
  8
LAYER_1
 10
18.5377
 20
-144.3039
  0
VERTEX
  8
LAYER_1
 10
18.5377
 20
-136.3082
  0
SEQEND
  0
POLYLINE
  8
LAYER_1
 40
0.1764
 41
0.1764
 62
1
 66
1
 10
0
 20
0
 30
0
  0
VERTEX
  8
LAYER_1
 10
18.9697
 20
-136.0626
  0
VERTEX
  8
LAYER_1
 10
18.5377
 20
-136.3082
  0
SEQEND
  0
POLYLINE
  8
LAYER_1
 40
0.1764
 41
0.1764
 62
1
 66
1
 10
0
 20
0
 30
0
  0
VERTEX
  8
LAYER_1
 10
18.8257
 20
-140.1451
  0
VERTEX
  8
LAYER_1
 10
18.5377
 20
-140.3061
  0
SEQEND
  0
POLYLINE
  8
LAYER_1
 40
0.1764
 41
0.1764
 62
1
 66
1
 10
0
 20
0
 30
0
  0
VERTEX
  8
LAYER_1
 10
18.8935
 20
-142.1017
  0
VERTEX
  8
LAYER_1
 10
18.5377
 20
-142.305
  0
SEQEND
  0
POLYLINE
  8
LAYER_1
 40
0.1764
 41
0.1764
 62
1
 66
1
 10
0
 20
0
 30
0
  0
VERTEX
  8
LAYER_1
 10
25.4662
 20
-148.3102
  0
VERTEX
  8
LAYER_1
 10
18.5377
 20
-144.3039
  0
SEQEND
  0
POLYLINE
  8
LAYER_1
 40
0.1764
 41
0.1764
 62
1
 66
1
 10
0
 20
0
 30
0
  0
VERTEX
  8
LAYER_1
 10
25.4662
 20
-140.306
  0
VERTEX
  8
LAYER_1
 10
18.5377
 20
-144.3039
  0
SEQEND
  0
POLYLINE
  8
LAYER_1
 40
0.1764
 41
0.1764
 62
1
 66
1
 10
0
 20
0
 30
0
  0
VERTEX
  8
LAYER_1
 10
25.4662
 20
-142.305
  0
VERTEX
  8
LAYER_1
 10
23.7384
 20
-141.3055
  0
SEQEND
  0
POLYLINE
  8
LAYER_1
 40
0.1764
 41
0.1764
 62
1
 66
1
 10
0
 20
0
 30
0
  0
VERTEX
  8
LAYER_1
 10
25.4662
 20
-144.3039
  0
VERTEX
  8
LAYER_1
 10
22.002
 20
-142.305
  0
SEQEND
  0
POLYLINE
  8
LAYER_1
 40
0.1764
 41
0.1764
 62
1
 66
1
 10
0
 20
0
 30
0
  0
VERTEX
  8
LAYER_1
 10
25.4662
 20
-146.3028
  0
VERTEX
  8
LAYER_1
 10
20.2741
 20
-143.3044
  0
SEQEND
  0
TEXT
  8
LAYER_1
 10
23.5899
 20
-141.1183
 11
23.5899
 21
-141.1183
 40
4.1737
 41
0.5
 50
89.99999999
  1
B
  0
ENDBLK
  0
BLOCK
  8
LAYER_1
  2
AIGNBL01010038
 70
64
 10
0
 20
0
 30
0
  3
AIGNBL01010038
  0
INSERT
  8
LAYER_1
  2
AIGNBL01020039
 10
0
 20
0
 30
0
  0
TEXT
  8
LAYER_1
 10
35.4769
 20
-76.1194
 11
35.4769
 21
-76.1194
 40
4.1737
 41
0.5
 50
270
  1
A
  0
ENDBLK
  0
BLOCK
  8
LAYER_1
  2
AIGNBL0101003A
 70
64
 10
0
 20
0
 30
0
  3
AIGNBL0101003A
  0
POLYLINE
  8
LAYER_1
 40
0.1764
 41
0.1764
 62
1
 66
1
 10
0
 20
0
 30
0
  0
VERTEX
  8
LAYER_1
 10
47.7899
 20
-85.8167
  0
VERTEX
  8
LAYER_1
 10
47.7899
 20
-69.8168
  0
VERTEX
  8
LAYER_1
 10
41.2934
 20
-73.569
  0
SEQEND
  0
POLYLINE
  8
LAYER_1
 40
0.1764
 41
0.1764
 62
1
 66
1
 10
0
 20
0
 30
0
  0
VERTEX
  8
LAYER_1
 10
47.7899
 20
-71.8157
  0
VERTEX
  8
LAYER_1
 10
47.7899
 20
-69.8168
  0
SEQEND
  0
POLYLINE
  8
LAYER_1
 40
0.1764
 41
0.1764
 62
1
 66
1
 10
0
 20
0
 30
0
  0
VERTEX
  8
LAYER_1
 10
47.7899
 20
-73.8146
  0
VERTEX
  8
LAYER_1
 10
47.7899
 20
-71.8157
  0
SEQEND
  0
POLYLINE
  8
LAYER_1
 40
0.1764
 41
0.1764
 62
1
 66
1
 10
0
 20
0
 30
0
  0
VERTEX
  8
LAYER_1
 10
47.7899
 20
-75.8136
  0
VERTEX
  8
LAYER_1
 10
47.7899
 20
-73.8146
  0
SEQEND
  0
POLYLINE
  8
LAYER_1
 40
0.1764
 41
0.1764
 62
1
 66
1
 10
0
 20
0
 30
0
  0
VERTEX
  8
LAYER_1
 10
47.7899
 20
-77.8125
  0
VERTEX
  8
LAYER_1
 10
47.7899
 20
-75.8136
  0
SEQEND
  0
POLYLINE
  8
LAYER_1
 40
0.1764
 41
0.1764
 62
1
 66
1
 10
0
 20
0
 30
0
  0
VERTEX
  8
LAYER_1
 10
47.7899
 20
-79.8114
  0
VERTEX
  8
LAYER_1
 10
47.7899
 20
-77.8125
  0
SEQEND
  0
POLYLINE
  8
LAYER_1
 40
0.1764
 41
0.1764
 62
1
 66
1
 10
0
 20
0
 30
0
  0
VERTEX
  8
LAYER_1
 10
47.7899
 20
-81.8104
  0
VERTEX
  8
LAYER_1
 10
47.7899
 20
-79.8114
  0
SEQEND
  0
POLYLINE
  8
LAYER_1
 40
0.1764
 41
0.1764
 62
1
 66
1
 10
0
 20
0
 30
0
  0
VERTEX
  8
LAYER_1
 10
47.7899
 20
-83.8093
  0
VERTEX
  8
LAYER_1
 10
47.7899
 20
-81.8104
  0
SEQEND
  0
POLYLINE
  8
LAYER_1
 40
0.1764
 41
0.1764
 62
1
 66
1
 10
0
 20
0
 30
0
  0
VERTEX
  8
LAYER_1
 10
47.7899
 20
-71.8157
  0
VERTEX
  8
LAYER_1
 10
40.9207
 20
-75.7797
  0
SEQEND
  0
POLYLINE
  8
LAYER_1
 40
0.1764
 41
0.1764
 62
1
 66
1
 10
0
 20
0
 30
0
  0
VERTEX
  8
LAYER_1
 10
47.7899
 20
-73.8146
  0
VERTEX
  8
LAYER_1
 10
41.1494
 20
-77.6515
  0
SEQEND
  0
POLYLINE
  8
LAYER_1
 40
0.1764
 41
0.1764
 62
1
 66
1
 10
0
 20
0
 30
0
  0
VERTEX
  8
LAYER_1
 10
47.7899
 20
-75.8135
  0
VERTEX
  8
LAYER_1
 10
41.2172
 20
-79.6081
  0
SEQEND
  0
POLYLINE
  8
LAYER_1
 40
0.1764
 41
0.1764
 62
1
 66
1
 10
0
 20
0
 30
0
  0
VERTEX
  8
LAYER_1
 10
40.8614
 20
-81.8103
  0
VERTEX
  8
LAYER_1
 10
40.8614
 20
-73.8146
  0
SEQEND
  0
POLYLINE
  8
LAYER_1
 40
0.1764
 41
0.1764
 62
1
 66
1
 10
0
 20
0
 30
0
  0
VERTEX
  8
LAYER_1
 10
41.2934
 20
-73.569
  0
VERTEX
  8
LAYER_1
 10
40.8614
 20
-73.8146
  0
SEQEND
  0
POLYLINE
  8
LAYER_1
 40
0.1764
 41
0.1764
 62
1
 66
1
 10
0
 20
0
 30
0
  0
VERTEX
  8
LAYER_1
 10
41.1494
 20
-77.6515
  0
VERTEX
  8
LAYER_1
 10
40.8614
 20
-77.8125
  0
SEQEND
  0
POLYLINE
  8
LAYER_1
 40
0.1764
 41
0.1764
 62
1
 66
1
 10
0
 20
0
 30
0
  0
VERTEX
  8
LAYER_1
 10
41.2172
 20
-79.6081
  0
VERTEX
  8
LAYER_1
 10
40.8614
 20
-79.8114
  0
SEQEND
  0
POLYLINE
  8
LAYER_1
 40
0.1764
 41
0.1764
 62
1
 66
1
 10
0
 20
0
 30
0
  0
VERTEX
  8
LAYER_1
 10
47.7899
 20
-85.8167
  0
VERTEX
  8
LAYER_1
 10
40.8614
 20
-81.8103
  0
SEQEND
  0
POLYLINE
  8
LAYER_1
 40
0.1764
 41
0.1764
 62
1
 66
1
 10
0
 20
0
 30
0
  0
VERTEX
  8
LAYER_1
 10
47.7899
 20
-77.8125
  0
VERTEX
  8
LAYER_1
 10
40.8614
 20
-81.8103
  0
SEQEND
  0
POLYLINE
  8
LAYER_1
 40
0.1764
 41
0.1764
 62
1
 66
1
 10
0
 20
0
 30
0
  0
VERTEX
  8
LAYER_1
 10
47.7899
 20
-79.8114
  0
VERTEX
  8
LAYER_1
 10
46.062
 20
-78.8119
  0
SEQEND
  0
POLYLINE
  8
LAYER_1
 40
0.1764
 41
0.1764
 62
1
 66
1
 10
0
 20
0
 30
0
  0
VERTEX
  8
LAYER_1
 10
47.7899
 20
-81.8103
  0
VERTEX
  8
LAYER_1
 10
44.3257
 20
-79.8114
  0
SEQEND
  0
POLYLINE
  8
LAYER_1
 40
0.1764
 41
0.1764
 62
1
 66
1
 10
0
 20
0
 30
0
  0
VERTEX
  8
LAYER_1
 10
47.7899
 20
-83.8092
  0
VERTEX
  8
LAYER_1
 10
42.5978
 20
-80.8108
  0
SEQEND
  0
TEXT
  8
LAYER_1
 10
45.9136
 20
-78.625
 11
45.9136
 21
-78.625
 40
4.1737
 41
0.5
 50
89.99999999
  1
B
  0
ENDBLK
  0
BLOCK
  8
LAYER_1
  2
AIGNBL0101003B
 70
64
 10
0
 20
0
 30
0
  3
AIGNBL0101003B
  0
INSERT
  8
LAYER_1
  2
AIGNBL0102003C
 10
0
 20
0
 30
0
  0
TEXT
  8
LAYER_1
 10
42.9431
 20
-88.6212
 11
42.9431
 21
-88.6212
 40
4.1737
 41
0.5
 50
270
  1
A
  0
ENDBLK
  0
BLOCK
  8
LAYER_1
  2
AIGNBL0101003D
 70
64
 10
0
 20
0
 30
0
  3
AIGNBL0101003D
  0
POLYLINE
  8
LAYER_1
 40
0.1764
 41
0.1764
 62
1
 66
1
 10
0
 20
0
 30
0
  0
VERTEX
  8
LAYER_1
 10
40.3614
 20
-98.319
  0
VERTEX
  8
LAYER_1
 10
40.3614
 20
-82.319
  0
VERTEX
  8
LAYER_1
 10
33.8649
 20
-86.0713
  0
SEQEND
  0
POLYLINE
  8
LAYER_1
 40
0.1764
 41
0.1764
 62
1
 66
1
 10
0
 20
0
 30
0
  0
VERTEX
  8
LAYER_1
 10
40.3614
 20
-84.318
  0
VERTEX
  8
LAYER_1
 10
40.3614
 20
-82.319
  0
SEQEND
  0
POLYLINE
  8
LAYER_1
 40
0.1764
 41
0.1764
 62
1
 66
1
 10
0
 20
0
 30
0
  0
VERTEX
  8
LAYER_1
 10
40.3614
 20
-86.3169
  0
VERTEX
  8
LAYER_1
 10
40.3614
 20
-84.318
  0
SEQEND
  0
POLYLINE
  8
LAYER_1
 40
0.1764
 41
0.1764
 62
1
 66
1
 10
0
 20
0
 30
0
  0
VERTEX
  8
LAYER_1
 10
40.3614
 20
-88.3158
  0
VERTEX
  8
LAYER_1
 10
40.3614
 20
-86.3169
  0
SEQEND
  0
POLYLINE
  8
LAYER_1
 40
0.1764
 41
0.1764
 62
1
 66
1
 10
0
 20
0
 30
0
  0
VERTEX
  8
LAYER_1
 10
40.3614
 20
-90.3147
  0
VERTEX
  8
LAYER_1
 10
40.3614
 20
-88.3158
  0
SEQEND
  0
POLYLINE
  8
LAYER_1
 40
0.1764
 41
0.1764
 62
1
 66
1
 10
0
 20
0
 30
0
  0
VERTEX
  8
LAYER_1
 10
40.3614
 20
-92.3137
  0
VERTEX
  8
LAYER_1
 10
40.3614
 20
-90.3147
  0
SEQEND
  0
POLYLINE
  8
LAYER_1
 40
0.1764
 41
0.1764
 62
1
 66
1
 10
0
 20
0
 30
0
  0
VERTEX
  8
LAYER_1
 10
40.3614
 20
-94.3126
  0
VERTEX
  8
LAYER_1
 10
40.3614
 20
-92.3137
  0
SEQEND
  0
POLYLINE
  8
LAYER_1
 40
0.1764
 41
0.1764
 62
1
 66
1
 10
0
 20
0
 30
0
  0
VERTEX
  8
LAYER_1
 10
40.3614
 20
-96.3115
  0
VERTEX
  8
LAYER_1
 10
40.3614
 20
-94.3126
  0
SEQEND
  0
POLYLINE
  8
LAYER_1
 40
0.1764
 41
0.1764
 62
1
 66
1
 10
0
 20
0
 30
0
  0
VERTEX
  8
LAYER_1
 10
40.3614
 20
-84.3179
  0
VERTEX
  8
LAYER_1
 10
33.4922
 20
-88.2819
  0
SEQEND
  0
POLYLINE
  8
LAYER_1
 40
0.1764
 41
0.1764
 62
1
 66
1
 10
0
 20
0
 30
0
  0
VERTEX
  8
LAYER_1
 10
40.3614
 20
-86.3169
  0
VERTEX
  8
LAYER_1
 10
33.7209
 20
-90.1538
  0
SEQEND
  0
POLYLINE
  8
LAYER_1
 40
0.1764
 41
0.1764
 62
1
 66
1
 10
0
 20
0
 30
0
  0
VERTEX
  8
LAYER_1
 10
40.3614
 20
-88.3158
  0
VERTEX
  8
LAYER_1
 10
33.7887
 20
-92.1104
  0
SEQEND
  0
POLYLINE
  8
LAYER_1
 40
0.1764
 41
0.1764
 62
1
 66
1
 10
0
 20
0
 30
0
  0
VERTEX
  8
LAYER_1
 10
33.4329
 20
-94.3126
  0
VERTEX
  8
LAYER_1
 10
33.4329
 20
-86.3169
  0
SEQEND
  0
POLYLINE
  8
LAYER_1
 40
0.1764
 41
0.1764
 62
1
 66
1
 10
0
 20
0
 30
0
  0
VERTEX
  8
LAYER_1
 10
33.8649
 20
-86.0712
  0
VERTEX
  8
LAYER_1
 10
33.4329
 20
-86.3169
  0
SEQEND
  0
POLYLINE
  8
LAYER_1
 40
0.1764
 41
0.1764
 62
1
 66
1
 10
0
 20
0
 30
0
  0
VERTEX
  8
LAYER_1
 10
33.7209
 20
-90.1538
  0
VERTEX
  8
LAYER_1
 10
33.4329
 20
-90.3147
  0
SEQEND
  0
POLYLINE
  8
LAYER_1
 40
0.1764
 41
0.1764
 62
1
 66
1
 10
0
 20
0
 30
0
  0
VERTEX
  8
LAYER_1
 10
33.7887
 20
-92.1104
  0
VERTEX
  8
LAYER_1
 10
33.4329
 20
-92.3137
  0
SEQEND
  0
POLYLINE
  8
LAYER_1
 40
0.1764
 41
0.1764
 62
1
 66
1
 10
0
 20
0
 30
0
  0
VERTEX
  8
LAYER_1
 10
40.3614
 20
-98.3189
  0
VERTEX
  8
LAYER_1
 10
33.4329
 20
-94.3126
  0
SEQEND
  0
POLYLINE
  8
LAYER_1
 40
0.1764
 41
0.1764
 62
1
 66
1
 10
0
 20
0
 30
0
  0
VERTEX
  8
LAYER_1
 10
40.3614
 20
-90.3147
  0
VERTEX
  8
LAYER_1
 10
33.4329
 20
-94.3126
  0
SEQEND
  0
POLYLINE
  8
LAYER_1
 40
0.1764
 41
0.1764
 62
1
 66
1
 10
0
 20
0
 30
0
  0
VERTEX
  8
LAYER_1
 10
40.3614
 20
-92.3136
  0
VERTEX
  8
LAYER_1
 10
38.6335
 20
-91.3142
  0
SEQEND
  0
POLYLINE
  8
LAYER_1
 40
0.1764
 41
0.1764
 62
1
 66
1
 10
0
 20
0
 30
0
  0
VERTEX
  8
LAYER_1
 10
40.3614
 20
-94.3126
  0
VERTEX
  8
LAYER_1
 10
36.8972
 20
-92.3136
  0
SEQEND
  0
POLYLINE
  8
LAYER_1
 40
0.1764
 41
0.1764
 62
1
 66
1
 10
0
 20
0
 30
0
  0
VERTEX
  8
LAYER_1
 10
40.3614
 20
-96.3115
  0
VERTEX
  8
LAYER_1
 10
35.1693
 20
-93.3131
  0
SEQEND
  0
TEXT
  8
LAYER_1
 10
38.4851
 20
-91.1273
 11
38.4851
 21
-91.1273
 40
4.1737
 41
0.5
 50
89.99999999
  1
B
  0
ENDBLK
  0
BLOCK
  8
LAYER_1
  2
AIGNBL0101003E
 70
64
 10
0
 20
0
 30
0
  3
AIGNBL0101003E
  0
INSERT
  8
LAYER_1
  2
AIGNBL0102003F
 10
0
 20
0
 30
0
  0
TEXT
  8
LAYER_1
 10
50.3721
 20
-76.1194
 11
50.3721
 21
-76.1194
 40
4.1737
 41
0.5
 50
270
  1
A
  0
ENDBLK
  0
BLOCK
  8
LAYER_1
  2
AIGNBL01010040
 70
64
 10
0
 20
0
 30
0
  3
AIGNBL01010040
  0
POLYLINE
  8
LAYER_1
 40
0.1764
 41
0.1764
 62
1
 66
1
 10
0
 20
0
 30
0
  0
VERTEX
  8
LAYER_1
 10
62.6851
 20
-85.8167
  0
VERTEX
  8
LAYER_1
 10
62.6851
 20
-69.8168
  0
VERTEX
  8
LAYER_1
 10
56.1886
 20
-73.569
  0
SEQEND
  0
POLYLINE
  8
LAYER_1
 40
0.1764
 41
0.1764
 62
1
 66
1
 10
0
 20
0
 30
0
  0
VERTEX
  8
LAYER_1
 10
62.6851
 20
-71.8157
  0
VERTEX
  8
LAYER_1
 10
62.6851
 20
-69.8168
  0
SEQEND
  0
POLYLINE
  8
LAYER_1
 40
0.1764
 41
0.1764
 62
1
 66
1
 10
0
 20
0
 30
0
  0
VERTEX
  8
LAYER_1
 10
62.6851
 20
-73.8146
  0
VERTEX
  8
LAYER_1
 10
62.6851
 20
-71.8157
  0
SEQEND
  0
POLYLINE
  8
LAYER_1
 40
0.1764
 41
0.1764
 62
1
 66
1
 10
0
 20
0
 30
0
  0
VERTEX
  8
LAYER_1
 10
62.6851
 20
-75.8136
  0
VERTEX
  8
LAYER_1
 10
62.6851
 20
-73.8146
  0
SEQEND
  0
POLYLINE
  8
LAYER_1
 40
0.1764
 41
0.1764
 62
1
 66
1
 10
0
 20
0
 30
0
  0
VERTEX
  8
LAYER_1
 10
62.6851
 20
-77.8125
  0
VERTEX
  8
LAYER_1
 10
62.6851
 20
-75.8136
  0
SEQEND
  0
POLYLINE
  8
LAYER_1
 40
0.1764
 41
0.1764
 62
1
 66
1
 10
0
 20
0
 30
0
  0
VERTEX
  8
LAYER_1
 10
62.6851
 20
-79.8114
  0
VERTEX
  8
LAYER_1
 10
62.6851
 20
-77.8125
  0
SEQEND
  0
POLYLINE
  8
LAYER_1
 40
0.1764
 41
0.1764
 62
1
 66
1
 10
0
 20
0
 30
0
  0
VERTEX
  8
LAYER_1
 10
62.6851
 20
-81.8104
  0
VERTEX
  8
LAYER_1
 10
62.6851
 20
-79.8114
  0
SEQEND
  0
POLYLINE
  8
LAYER_1
 40
0.1764
 41
0.1764
 62
1
 66
1
 10
0
 20
0
 30
0
  0
VERTEX
  8
LAYER_1
 10
62.6851
 20
-83.8093
  0
VERTEX
  8
LAYER_1
 10
62.6851
 20
-81.8104
  0
SEQEND
  0
POLYLINE
  8
LAYER_1
 40
0.1764
 41
0.1764
 62
1
 66
1
 10
0
 20
0
 30
0
  0
VERTEX
  8
LAYER_1
 10
62.6851
 20
-71.8157
  0
VERTEX
  8
LAYER_1
 10
55.8159
 20
-75.7797
  0
SEQEND
  0
POLYLINE
  8
LAYER_1
 40
0.1764
 41
0.1764
 62
1
 66
1
 10
0
 20
0
 30
0
  0
VERTEX
  8
LAYER_1
 10
62.6851
 20
-73.8146
  0
VERTEX
  8
LAYER_1
 10
56.0446
 20
-77.6515
  0
SEQEND
  0
POLYLINE
  8
LAYER_1
 40
0.1764
 41
0.1764
 62
1
 66
1
 10
0
 20
0
 30
0
  0
VERTEX
  8
LAYER_1
 10
62.6851
 20
-75.8135
  0
VERTEX
  8
LAYER_1
 10
56.1123
 20
-79.6081
  0
SEQEND
  0
POLYLINE
  8
LAYER_1
 40
0.1764
 41
0.1764
 62
1
 66
1
 10
0
 20
0
 30
0
  0
VERTEX
  8
LAYER_1
 10
55.7566
 20
-81.8103
  0
VERTEX
  8
LAYER_1
 10
55.7566
 20
-73.8146
  0
SEQEND
  0
POLYLINE
  8
LAYER_1
 40
0.1764
 41
0.1764
 62
1
 66
1
 10
0
 20
0
 30
0
  0
VERTEX
  8
LAYER_1
 10
56.1886
 20
-73.569
  0
VERTEX
  8
LAYER_1
 10
55.7566
 20
-73.8146
  0
SEQEND
  0
POLYLINE
  8
LAYER_1
 40
0.1764
 41
0.1764
 62
1
 66
1
 10
0
 20
0
 30
0
  0
VERTEX
  8
LAYER_1
 10
56.0446
 20
-77.6515
  0
VERTEX
  8
LAYER_1
 10
55.7566
 20
-77.8125
  0
SEQEND
  0
POLYLINE
  8
LAYER_1
 40
0.1764
 41
0.1764
 62
1
 66
1
 10
0
 20
0
 30
0
  0
VERTEX
  8
LAYER_1
 10
56.1123
 20
-79.6081
  0
VERTEX
  8
LAYER_1
 10
55.7566
 20
-79.8114
  0
SEQEND
  0
POLYLINE
  8
LAYER_1
 40
0.1764
 41
0.1764
 62
1
 66
1
 10
0
 20
0
 30
0
  0
VERTEX
  8
LAYER_1
 10
62.6851
 20
-85.8167
  0
VERTEX
  8
LAYER_1
 10
55.7566
 20
-81.8103
  0
SEQEND
  0
POLYLINE
  8
LAYER_1
 40
0.1764
 41
0.1764
 62
1
 66
1
 10
0
 20
0
 30
0
  0
VERTEX
  8
LAYER_1
 10
62.6851
 20
-77.8125
  0
VERTEX
  8
LAYER_1
 10
55.7566
 20
-81.8103
  0
SEQEND
  0
POLYLINE
  8
LAYER_1
 40
0.1764
 41
0.1764
 62
1
 66
1
 10
0
 20
0
 30
0
  0
VERTEX
  8
LAYER_1
 10
62.6851
 20
-79.8114
  0
VERTEX
  8
LAYER_1
 10
60.9572
 20
-78.8119
  0
SEQEND
  0
POLYLINE
  8
LAYER_1
 40
0.1764
 41
0.1764
 62
1
 66
1
 10
0
 20
0
 30
0
  0
VERTEX
  8
LAYER_1
 10
62.6851
 20
-81.8103
  0
VERTEX
  8
LAYER_1
 10
59.2208
 20
-79.8114
  0
SEQEND
  0
POLYLINE
  8
LAYER_1
 40
0.1764
 41
0.1764
 62
1
 66
1
 10
0
 20
0
 30
0
  0
VERTEX
  8
LAYER_1
 10
62.6851
 20
-83.8092
  0
VERTEX
  8
LAYER_1
 10
57.4929
 20
-80.8108
  0
SEQEND
  0
TEXT
  8
LAYER_1
 10
60.8088
 20
-78.625
 11
60.8088
 21
-78.625
 40
4.1737
 41
0.5
 50
89.99999999
  1
B
  0
ENDBLK
  0
BLOCK
  8
LAYER_1
  2
AIGNBL01010041
 70
64
 10
0
 20
0
 30
0
  3
AIGNBL01010041
  0
INSERT
  8
LAYER_1
  2
AIGNBL01020042
 10
0
 20
0
 30
0
  0
TEXT
  8
LAYER_1
 10
57.8383
 20
-88.6212
 11
57.8383
 21
-88.6212
 40
4.1737
 41
0.5
 50
270
  1
A
  0
ENDBLK
  0
BLOCK
  8
LAYER_1
  2
AIGNBL01010043
 70
64
 10
0
 20
0
 30
0
  3
AIGNBL01010043
  0
POLYLINE
  8
LAYER_1
 40
0.1764
 41
0.1764
 62
1
 66
1
 10
0
 20
0
 30
0
  0
VERTEX
  8
LAYER_1
 10
55.2566
 20
-98.319
  0
VERTEX
  8
LAYER_1
 10
55.2566
 20
-82.319
  0
VERTEX
  8
LAYER_1
 10
48.7601
 20
-86.0713
  0
SEQEND
  0
POLYLINE
  8
LAYER_1
 40
0.1764
 41
0.1764
 62
1
 66
1
 10
0
 20
0
 30
0
  0
VERTEX
  8
LAYER_1
 10
55.2566
 20
-84.318
  0
VERTEX
  8
LAYER_1
 10
55.2566
 20
-82.319
  0
SEQEND
  0
POLYLINE
  8
LAYER_1
 40
0.1764
 41
0.1764
 62
1
 66
1
 10
0
 20
0
 30
0
  0
VERTEX
  8
LAYER_1
 10
55.2566
 20
-86.3169
  0
VERTEX
  8
LAYER_1
 10
55.2566
 20
-84.318
  0
SEQEND
  0
POLYLINE
  8
LAYER_1
 40
0.1764
 41
0.1764
 62
1
 66
1
 10
0
 20
0
 30
0
  0
VERTEX
  8
LAYER_1
 10
55.2566
 20
-88.3158
  0
VERTEX
  8
LAYER_1
 10
55.2566
 20
-86.3169
  0
SEQEND
  0
POLYLINE
  8
LAYER_1
 40
0.1764
 41
0.1764
 62
1
 66
1
 10
0
 20
0
 30
0
  0
VERTEX
  8
LAYER_1
 10
55.2566
 20
-90.3147
  0
VERTEX
  8
LAYER_1
 10
55.2566
 20
-88.3158
  0
SEQEND
  0
POLYLINE
  8
LAYER_1
 40
0.1764
 41
0.1764
 62
1
 66
1
 10
0
 20
0
 30
0
  0
VERTEX
  8
LAYER_1
 10
55.2566
 20
-92.3137
  0
VERTEX
  8
LAYER_1
 10
55.2566
 20
-90.3147
  0
SEQEND
  0
POLYLINE
  8
LAYER_1
 40
0.1764
 41
0.1764
 62
1
 66
1
 10
0
 20
0
 30
0
  0
VERTEX
  8
LAYER_1
 10
55.2566
 20
-94.3126
  0
VERTEX
  8
LAYER_1
 10
55.2566
 20
-92.3137
  0
SEQEND
  0
POLYLINE
  8
LAYER_1
 40
0.1764
 41
0.1764
 62
1
 66
1
 10
0
 20
0
 30
0
  0
VERTEX
  8
LAYER_1
 10
55.2566
 20
-96.3115
  0
VERTEX
  8
LAYER_1
 10
55.2566
 20
-94.3126
  0
SEQEND
  0
POLYLINE
  8
LAYER_1
 40
0.1764
 41
0.1764
 62
1
 66
1
 10
0
 20
0
 30
0
  0
VERTEX
  8
LAYER_1
 10
55.2566
 20
-84.3179
  0
VERTEX
  8
LAYER_1
 10
48.3874
 20
-88.2819
  0
SEQEND
  0
POLYLINE
  8
LAYER_1
 40
0.1764
 41
0.1764
 62
1
 66
1
 10
0
 20
0
 30
0
  0
VERTEX
  8
LAYER_1
 10
55.2566
 20
-86.3169
  0
VERTEX
  8
LAYER_1
 10
48.6161
 20
-90.1538
  0
SEQEND
  0
POLYLINE
  8
LAYER_1
 40
0.1764
 41
0.1764
 62
1
 66
1
 10
0
 20
0
 30
0
  0
VERTEX
  8
LAYER_1
 10
55.2566
 20
-88.3158
  0
VERTEX
  8
LAYER_1
 10
48.6838
 20
-92.1104
  0
SEQEND
  0
POLYLINE
  8
LAYER_1
 40
0.1764
 41
0.1764
 62
1
 66
1
 10
0
 20
0
 30
0
  0
VERTEX
  8
LAYER_1
 10
48.3281
 20
-94.3126
  0
VERTEX
  8
LAYER_1
 10
48.3281
 20
-86.3169
  0
SEQEND
  0
POLYLINE
  8
LAYER_1
 40
0.1764
 41
0.1764
 62
1
 66
1
 10
0
 20
0
 30
0
  0
VERTEX
  8
LAYER_1
 10
48.76
 20
-86.0712
  0
VERTEX
  8
LAYER_1
 10
48.3281
 20
-86.3169
  0
SEQEND
  0
POLYLINE
  8
LAYER_1
 40
0.1764
 41
0.1764
 62
1
 66
1
 10
0
 20
0
 30
0
  0
VERTEX
  8
LAYER_1
 10
48.6161
 20
-90.1538
  0
VERTEX
  8
LAYER_1
 10
48.3281
 20
-90.3147
  0
SEQEND
  0
POLYLINE
  8
LAYER_1
 40
0.1764
 41
0.1764
 62
1
 66
1
 10
0
 20
0
 30
0
  0
VERTEX
  8
LAYER_1
 10
48.6838
 20
-92.1104
  0
VERTEX
  8
LAYER_1
 10
48.3281
 20
-92.3137
  0
SEQEND
  0
POLYLINE
  8
LAYER_1
 40
0.1764
 41
0.1764
 62
1
 66
1
 10
0
 20
0
 30
0
  0
VERTEX
  8
LAYER_1
 10
55.2566
 20
-98.3189
  0
VERTEX
  8
LAYER_1
 10
48.3281
 20
-94.3126
  0
SEQEND
  0
POLYLINE
  8
LAYER_1
 40
0.1764
 41
0.1764
 62
1
 66
1
 10
0
 20
0
 30
0
  0
VERTEX
  8
LAYER_1
 10
55.2566
 20
-90.3147
  0
VERTEX
  8
LAYER_1
 10
48.3281
 20
-94.3126
  0
SEQEND
  0
POLYLINE
  8
LAYER_1
 40
0.1764
 41
0.1764
 62
1
 66
1
 10
0
 20
0
 30
0
  0
VERTEX
  8
LAYER_1
 10
55.2566
 20
-92.3136
  0
VERTEX
  8
LAYER_1
 10
53.5287
 20
-91.3142
  0
SEQEND
  0
POLYLINE
  8
LAYER_1
 40
0.1764
 41
0.1764
 62
1
 66
1
 10
0
 20
0
 30
0
  0
VERTEX
  8
LAYER_1
 10
55.2566
 20
-94.3126
  0
VERTEX
  8
LAYER_1
 10
51.7923
 20
-92.3136
  0
SEQEND
  0
POLYLINE
  8
LAYER_1
 40
0.1764
 41
0.1764
 62
1
 66
1
 10
0
 20
0
 30
0
  0
VERTEX
  8
LAYER_1
 10
55.2566
 20
-96.3115
  0
VERTEX
  8
LAYER_1
 10
50.0644
 20
-93.3131
  0
SEQEND
  0
TEXT
  8
LAYER_1
 10
53.3803
 20
-91.1273
 11
53.3803
 21
-91.1273
 40
4.1737
 41
0.5
 50
89.99999999
  1
B
  0
ENDBLK
  0
BLOCK
  8
LAYER_1
  2
AIGNBL01010044
 70
64
 10
0
 20
0
 30
0
  3
AIGNBL01010044
  0
INSERT
  8
LAYER_1
  2
AIGNBL01020045
 10
0
 20
0
 30
0
  0
TEXT
  8
LAYER_1
 10
35.4769
 20
-101.1151
 11
35.4769
 21
-101.1151
 40
4.1737
 41
0.5
 50
270
  1
A
  0
ENDBLK
  0
BLOCK
  8
LAYER_1
  2
AIGNBL01010046
 70
64
 10
0
 20
0
 30
0
  3
AIGNBL01010046
  0
POLYLINE
  8
LAYER_1
 40
0.1764
 41
0.1764
 62
1
 66
1
 10
0
 20
0
 30
0
  0
VERTEX
  8
LAYER_1
 10
47.7899
 20
-110.8124
  0
VERTEX
  8
LAYER_1
 10
47.7899
 20
-94.8124
  0
VERTEX
  8
LAYER_1
 10
41.2934
 20
-98.5647
  0
SEQEND
  0
POLYLINE
  8
LAYER_1
 40
0.1764
 41
0.1764
 62
1
 66
1
 10
0
 20
0
 30
0
  0
VERTEX
  8
LAYER_1
 10
47.7899
 20
-96.8114
  0
VERTEX
  8
LAYER_1
 10
47.7899
 20
-94.8124
  0
SEQEND
  0
POLYLINE
  8
LAYER_1
 40
0.1764
 41
0.1764
 62
1
 66
1
 10
0
 20
0
 30
0
  0
VERTEX
  8
LAYER_1
 10
47.7899
 20
-98.8103
  0
VERTEX
  8
LAYER_1
 10
47.7899
 20
-96.8114
  0
SEQEND
  0
POLYLINE
  8
LAYER_1
 40
0.1764
 41
0.1764
 62
1
 66
1
 10
0
 20
0
 30
0
  0
VERTEX
  8
LAYER_1
 10
47.7899
 20
-100.8092
  0
VERTEX
  8
LAYER_1
 10
47.7899
 20
-98.8103
  0
SEQEND
  0
POLYLINE
  8
LAYER_1
 40
0.1764
 41
0.1764
 62
1
 66
1
 10
0
 20
0
 30
0
  0
VERTEX
  8
LAYER_1
 10
47.7899
 20
-102.8082
  0
VERTEX
  8
LAYER_1
 10
47.7899
 20
-100.8092
  0
SEQEND
  0
POLYLINE
  8
LAYER_1
 40
0.1764
 41
0.1764
 62
1
 66
1
 10
0
 20
0
 30
0
  0
VERTEX
  8
LAYER_1
 10
47.7899
 20
-104.8071
  0
VERTEX
  8
LAYER_1
 10
47.7899
 20
-102.8082
  0
SEQEND
  0
POLYLINE
  8
LAYER_1
 40
0.1764
 41
0.1764
 62
1
 66
1
 10
0
 20
0
 30
0
  0
VERTEX
  8
LAYER_1
 10
47.7899
 20
-106.806
  0
VERTEX
  8
LAYER_1
 10
47.7899
 20
-104.8071
  0
SEQEND
  0
POLYLINE
  8
LAYER_1
 40
0.1764
 41
0.1764
 62
1
 66
1
 10
0
 20
0
 30
0
  0
VERTEX
  8
LAYER_1
 10
47.7899
 20
-108.8049
  0
VERTEX
  8
LAYER_1
 10
47.7899
 20
-106.806
  0
SEQEND
  0
POLYLINE
  8
LAYER_1
 40
0.1764
 41
0.1764
 62
1
 66
1
 10
0
 20
0
 30
0
  0
VERTEX
  8
LAYER_1
 10
47.7899
 20
-96.8113
  0
VERTEX
  8
LAYER_1
 10
40.9207
 20
-100.7753
  0
SEQEND
  0
POLYLINE
  8
LAYER_1
 40
0.1764
 41
0.1764
 62
1
 66
1
 10
0
 20
0
 30
0
  0
VERTEX
  8
LAYER_1
 10
47.7899
 20
-98.8103
  0
VERTEX
  8
LAYER_1
 10
41.1494
 20
-102.6472
  0
SEQEND
  0
POLYLINE
  8
LAYER_1
 40
0.1764
 41
0.1764
 62
1
 66
1
 10
0
 20
0
 30
0
  0
VERTEX
  8
LAYER_1
 10
47.7899
 20
-100.8092
  0
VERTEX
  8
LAYER_1
 10
41.2172
 20
-104.6038
  0
SEQEND
  0
POLYLINE
  8
LAYER_1
 40
0.1764
 41
0.1764
 62
1
 66
1
 10
0
 20
0
 30
0
  0
VERTEX
  8
LAYER_1
 10
40.8614
 20
-106.806
  0
VERTEX
  8
LAYER_1
 10
40.8614
 20
-98.8103
  0
SEQEND
  0
POLYLINE
  8
LAYER_1
 40
0.1764
 41
0.1764
 62
1
 66
1
 10
0
 20
0
 30
0
  0
VERTEX
  8
LAYER_1
 10
41.2934
 20
-98.5646
  0
VERTEX
  8
LAYER_1
 10
40.8614
 20
-98.8103
  0
SEQEND
  0
POLYLINE
  8
LAYER_1
 40
0.1764
 41
0.1764
 62
1
 66
1
 10
0
 20
0
 30
0
  0
VERTEX
  8
LAYER_1
 10
41.1494
 20
-102.6472
  0
VERTEX
  8
LAYER_1
 10
40.8614
 20
-102.8081
  0
SEQEND
  0
POLYLINE
  8
LAYER_1
 40
0.1764
 41
0.1764
 62
1
 66
1
 10
0
 20
0
 30
0
  0
VERTEX
  8
LAYER_1
 10
41.2172
 20
-104.6038
  0
VERTEX
  8
LAYER_1
 10
40.8614
 20
-104.8071
  0
SEQEND
  0
POLYLINE
  8
LAYER_1
 40
0.1764
 41
0.1764
 62
1
 66
1
 10
0
 20
0
 30
0
  0
VERTEX
  8
LAYER_1
 10
47.7899
 20
-110.8123
  0
VERTEX
  8
LAYER_1
 10
40.8614
 20
-106.806
  0
SEQEND
  0
POLYLINE
  8
LAYER_1
 40
0.1764
 41
0.1764
 62
1
 66
1
 10
0
 20
0
 30
0
  0
VERTEX
  8
LAYER_1
 10
47.7899
 20
-102.8081
  0
VERTEX
  8
LAYER_1
 10
40.8614
 20
-106.806
  0
SEQEND
  0
POLYLINE
  8
LAYER_1
 40
0.1764
 41
0.1764
 62
1
 66
1
 10
0
 20
0
 30
0
  0
VERTEX
  8
LAYER_1
 10
47.7899
 20
-104.8071
  0
VERTEX
  8
LAYER_1
 10
46.062
 20
-103.8076
  0
SEQEND
  0
POLYLINE
  8
LAYER_1
 40
0.1764
 41
0.1764
 62
1
 66
1
 10
0
 20
0
 30
0
  0
VERTEX
  8
LAYER_1
 10
47.7899
 20
-106.806
  0
VERTEX
  8
LAYER_1
 10
44.3257
 20
-104.8071
  0
SEQEND
  0
POLYLINE
  8
LAYER_1
 40
0.1764
 41
0.1764
 62
1
 66
1
 10
0
 20
0
 30
0
  0
VERTEX
  8
LAYER_1
 10
47.7899
 20
-108.8049
  0
VERTEX
  8
LAYER_1
 10
42.5978
 20
-105.8065
  0
SEQEND
  0
TEXT
  8
LAYER_1
 10
45.9136
 20
-103.6205
 11
45.9136
 21
-103.6205
 40
4.1737
 41
0.5
 50
89.99999999
  1
B
  0
ENDBLK
  0
BLOCK
  8
LAYER_1
  2
AIGNBL01010047
 70
64
 10
0
 20
0
 30
0
  3
AIGNBL01010047
  0
INSERT
  8
LAYER_1
  2
AIGNBL01020048
 10
0
 20
0
 30
0
  0
TEXT
  8
LAYER_1
 10
42.9431
 20
-113.6169
 11
42.9431
 21
-113.6169
 40
4.1737
 41
0.5
 50
270
  1
A
  0
ENDBLK
  0
BLOCK
  8
LAYER_1
  2
AIGNBL01010049
 70
64
 10
0
 20
0
 30
0
  3
AIGNBL01010049
  0
POLYLINE
  8
LAYER_1
 40
0.1764
 41
0.1764
 62
1
 66
1
 10
0
 20
0
 30
0
  0
VERTEX
  8
LAYER_1
 10
40.3614
 20
-123.3146
  0
VERTEX
  8
LAYER_1
 10
40.3614
 20
-107.3147
  0
VERTEX
  8
LAYER_1
 10
33.8649
 20
-111.0669
  0
SEQEND
  0
POLYLINE
  8
LAYER_1
 40
0.1764
 41
0.1764
 62
1
 66
1
 10
0
 20
0
 30
0
  0
VERTEX
  8
LAYER_1
 10
40.3614
 20
-109.3136
  0
VERTEX
  8
LAYER_1
 10
40.3614
 20
-107.3147
  0
SEQEND
  0
POLYLINE
  8
LAYER_1
 40
0.1764
 41
0.1764
 62
1
 66
1
 10
0
 20
0
 30
0
  0
VERTEX
  8
LAYER_1
 10
40.3614
 20
-111.3126
  0
VERTEX
  8
LAYER_1
 10
40.3614
 20
-109.3136
  0
SEQEND
  0
POLYLINE
  8
LAYER_1
 40
0.1764
 41
0.1764
 62
1
 66
1
 10
0
 20
0
 30
0
  0
VERTEX
  8
LAYER_1
 10
40.3614
 20
-113.3115
  0
VERTEX
  8
LAYER_1
 10
40.3614
 20
-111.3126
  0
SEQEND
  0
POLYLINE
  8
LAYER_1
 40
0.1764
 41
0.1764
 62
1
 66
1
 10
0
 20
0
 30
0
  0
VERTEX
  8
LAYER_1
 10
40.3614
 20
-115.3104
  0
VERTEX
  8
LAYER_1
 10
40.3614
 20
-113.3115
  0
SEQEND
  0
POLYLINE
  8
LAYER_1
 40
0.1764
 41
0.1764
 62
1
 66
1
 10
0
 20
0
 30
0
  0
VERTEX
  8
LAYER_1
 10
40.3614
 20
-117.3093
  0
VERTEX
  8
LAYER_1
 10
40.3614
 20
-115.3104
  0
SEQEND
  0
POLYLINE
  8
LAYER_1
 40
0.1764
 41
0.1764
 62
1
 66
1
 10
0
 20
0
 30
0
  0
VERTEX
  8
LAYER_1
 10
40.3614
 20
-119.3083
  0
VERTEX
  8
LAYER_1
 10
40.3614
 20
-117.3093
  0
SEQEND
  0
POLYLINE
  8
LAYER_1
 40
0.1764
 41
0.1764
 62
1
 66
1
 10
0
 20
0
 30
0
  0
VERTEX
  8
LAYER_1
 10
40.3614
 20
-121.3072
  0
VERTEX
  8
LAYER_1
 10
40.3614
 20
-119.3083
  0
SEQEND
  0
POLYLINE
  8
LAYER_1
 40
0.1764
 41
0.1764
 62
1
 66
1
 10
0
 20
0
 30
0
  0
VERTEX
  8
LAYER_1
 10
40.3614
 20
-109.3136
  0
VERTEX
  8
LAYER_1
 10
33.4922
 20
-113.2776
  0
SEQEND
  0
POLYLINE
  8
LAYER_1
 40
0.1764
 41
0.1764
 62
1
 66
1
 10
0
 20
0
 30
0
  0
VERTEX
  8
LAYER_1
 10
40.3614
 20
-111.3125
  0
VERTEX
  8
LAYER_1
 10
33.7209
 20
-115.1495
  0
SEQEND
  0
POLYLINE
  8
LAYER_1
 40
0.1764
 41
0.1764
 62
1
 66
1
 10
0
 20
0
 30
0
  0
VERTEX
  8
LAYER_1
 10
40.3614
 20
-113.3115
  0
VERTEX
  8
LAYER_1
 10
33.7887
 20
-117.106
  0
SEQEND
  0
POLYLINE
  8
LAYER_1
 40
0.1764
 41
0.1764
 62
1
 66
1
 10
0
 20
0
 30
0
  0
VERTEX
  8
LAYER_1
 10
33.4329
 20
-119.3083
  0
VERTEX
  8
LAYER_1
 10
33.4329
 20
-111.3125
  0
SEQEND
  0
POLYLINE
  8
LAYER_1
 40
0.1764
 41
0.1764
 62
1
 66
1
 10
0
 20
0
 30
0
  0
VERTEX
  8
LAYER_1
 10
33.8649
 20
-111.0669
  0
VERTEX
  8
LAYER_1
 10
33.4329
 20
-111.3125
  0
SEQEND
  0
POLYLINE
  8
LAYER_1
 40
0.1764
 41
0.1764
 62
1
 66
1
 10
0
 20
0
 30
0
  0
VERTEX
  8
LAYER_1
 10
33.7209
 20
-115.1495
  0
VERTEX
  8
LAYER_1
 10
33.4329
 20
-115.3104
  0
SEQEND
  0
POLYLINE
  8
LAYER_1
 40
0.1764
 41
0.1764
 62
1
 66
1
 10
0
 20
0
 30
0
  0
VERTEX
  8
LAYER_1
 10
33.7887
 20
-117.106
  0
VERTEX
  8
LAYER_1
 10
33.4329
 20
-117.3093
  0
SEQEND
  0
POLYLINE
  8
LAYER_1
 40
0.1764
 41
0.1764
 62
1
 66
1
 10
0
 20
0
 30
0
  0
VERTEX
  8
LAYER_1
 10
40.3614
 20
-123.3146
  0
VERTEX
  8
LAYER_1
 10
33.4329
 20
-119.3082
  0
SEQEND
  0
POLYLINE
  8
LAYER_1
 40
0.1764
 41
0.1764
 62
1
 66
1
 10
0
 20
0
 30
0
  0
VERTEX
  8
LAYER_1
 10
40.3614
 20
-115.3104
  0
VERTEX
  8
LAYER_1
 10
33.4329
 20
-119.3082
  0
SEQEND
  0
POLYLINE
  8
LAYER_1
 40
0.1764
 41
0.1764
 62
1
 66
1
 10
0
 20
0
 30
0
  0
VERTEX
  8
LAYER_1
 10
40.3614
 20
-117.3093
  0
VERTEX
  8
LAYER_1
 10
38.6335
 20
-116.3098
  0
SEQEND
  0
POLYLINE
  8
LAYER_1
 40
0.1764
 41
0.1764
 62
1
 66
1
 10
0
 20
0
 30
0
  0
VERTEX
  8
LAYER_1
 10
40.3614
 20
-119.3082
  0
VERTEX
  8
LAYER_1
 10
36.8972
 20
-117.3093
  0
SEQEND
  0
POLYLINE
  8
LAYER_1
 40
0.1764
 41
0.1764
 62
1
 66
1
 10
0
 20
0
 30
0
  0
VERTEX
  8
LAYER_1
 10
40.3614
 20
-121.3072
  0
VERTEX
  8
LAYER_1
 10
35.1693
 20
-118.3088
  0
SEQEND
  0
TEXT
  8
LAYER_1
 10
38.4851
 20
-116.1228
 11
38.4851
 21
-116.1228
 40
4.1737
 41
0.5
 50
89.99999999
  1
B
  0
ENDBLK
  0
BLOCK
  8
LAYER_1
  2
AIGNBL0101004A
 70
64
 10
0
 20
0
 30
0
  3
AIGNBL0101004A
  0
INSERT
  8
LAYER_1
  2
AIGNBL0102004B
 10
0
 20
0
 30
0
  0
TEXT
  8
LAYER_1
 10
50.3721
 20
-101.1151
 11
50.3721
 21
-101.1151
 40
4.1737
 41
0.5
 50
270
  1
A
  0
ENDBLK
  0
BLOCK
  8
LAYER_1
  2
AIGNBL0101004C
 70
64
 10
0
 20
0
 30
0
  3
AIGNBL0101004C
  0
POLYLINE
  8
LAYER_1
 40
0.1764
 41
0.1764
 62
1
 66
1
 10
0
 20
0
 30
0
  0
VERTEX
  8
LAYER_1
 10
62.6851
 20
-110.8124
  0
VERTEX
  8
LAYER_1
 10
62.6851
 20
-94.8124
  0
VERTEX
  8
LAYER_1
 10
56.1886
 20
-98.5647
  0
SEQEND
  0
POLYLINE
  8
LAYER_1
 40
0.1764
 41
0.1764
 62
1
 66
1
 10
0
 20
0
 30
0
  0
VERTEX
  8
LAYER_1
 10
62.6851
 20
-96.8114
  0
VERTEX
  8
LAYER_1
 10
62.6851
 20
-94.8124
  0
SEQEND
  0
POLYLINE
  8
LAYER_1
 40
0.1764
 41
0.1764
 62
1
 66
1
 10
0
 20
0
 30
0
  0
VERTEX
  8
LAYER_1
 10
62.6851
 20
-98.8103
  0
VERTEX
  8
LAYER_1
 10
62.6851
 20
-96.8114
  0
SEQEND
  0
POLYLINE
  8
LAYER_1
 40
0.1764
 41
0.1764
 62
1
 66
1
 10
0
 20
0
 30
0
  0
VERTEX
  8
LAYER_1
 10
62.6851
 20
-100.8092
  0
VERTEX
  8
LAYER_1
 10
62.6851
 20
-98.8103
  0
SEQEND
  0
POLYLINE
  8
LAYER_1
 40
0.1764
 41
0.1764
 62
1
 66
1
 10
0
 20
0
 30
0
  0
VERTEX
  8
LAYER_1
 10
62.6851
 20
-102.8082
  0
VERTEX
  8
LAYER_1
 10
62.6851
 20
-100.8092
  0
SEQEND
  0
POLYLINE
  8
LAYER_1
 40
0.1764
 41
0.1764
 62
1
 66
1
 10
0
 20
0
 30
0
  0
VERTEX
  8
LAYER_1
 10
62.6851
 20
-104.8071
  0
VERTEX
  8
LAYER_1
 10
62.6851
 20
-102.8082
  0
SEQEND
  0
POLYLINE
  8
LAYER_1
 40
0.1764
 41
0.1764
 62
1
 66
1
 10
0
 20
0
 30
0
  0
VERTEX
  8
LAYER_1
 10
62.6851
 20
-106.806
  0
VERTEX
  8
LAYER_1
 10
62.6851
 20
-104.8071
  0
SEQEND
  0
POLYLINE
  8
LAYER_1
 40
0.1764
 41
0.1764
 62
1
 66
1
 10
0
 20
0
 30
0
  0
VERTEX
  8
LAYER_1
 10
62.6851
 20
-108.8049
  0
VERTEX
  8
LAYER_1
 10
62.6851
 20
-106.806
  0
SEQEND
  0
POLYLINE
  8
LAYER_1
 40
0.1764
 41
0.1764
 62
1
 66
1
 10
0
 20
0
 30
0
  0
VERTEX
  8
LAYER_1
 10
62.6851
 20
-96.8113
  0
VERTEX
  8
LAYER_1
 10
55.8159
 20
-100.7753
  0
SEQEND
  0
POLYLINE
  8
LAYER_1
 40
0.1764
 41
0.1764
 62
1
 66
1
 10
0
 20
0
 30
0
  0
VERTEX
  8
LAYER_1
 10
62.6851
 20
-98.8103
  0
VERTEX
  8
LAYER_1
 10
56.0446
 20
-102.6472
  0
SEQEND
  0
POLYLINE
  8
LAYER_1
 40
0.1764
 41
0.1764
 62
1
 66
1
 10
0
 20
0
 30
0
  0
VERTEX
  8
LAYER_1
 10
62.6851
 20
-100.8092
  0
VERTEX
  8
LAYER_1
 10
56.1123
 20
-104.6038
  0
SEQEND
  0
POLYLINE
  8
LAYER_1
 40
0.1764
 41
0.1764
 62
1
 66
1
 10
0
 20
0
 30
0
  0
VERTEX
  8
LAYER_1
 10
55.7566
 20
-106.806
  0
VERTEX
  8
LAYER_1
 10
55.7566
 20
-98.8103
  0
SEQEND
  0
POLYLINE
  8
LAYER_1
 40
0.1764
 41
0.1764
 62
1
 66
1
 10
0
 20
0
 30
0
  0
VERTEX
  8
LAYER_1
 10
56.1886
 20
-98.5646
  0
VERTEX
  8
LAYER_1
 10
55.7566
 20
-98.8103
  0
SEQEND
  0
POLYLINE
  8
LAYER_1
 40
0.1764
 41
0.1764
 62
1
 66
1
 10
0
 20
0
 30
0
  0
VERTEX
  8
LAYER_1
 10
56.0446
 20
-102.6472
  0
VERTEX
  8
LAYER_1
 10
55.7566
 20
-102.8081
  0
SEQEND
  0
POLYLINE
  8
LAYER_1
 40
0.1764
 41
0.1764
 62
1
 66
1
 10
0
 20
0
 30
0
  0
VERTEX
  8
LAYER_1
 10
56.1123
 20
-104.6038
  0
VERTEX
  8
LAYER_1
 10
55.7566
 20
-104.8071
  0
SEQEND
  0
POLYLINE
  8
LAYER_1
 40
0.1764
 41
0.1764
 62
1
 66
1
 10
0
 20
0
 30
0
  0
VERTEX
  8
LAYER_1
 10
62.6851
 20
-110.8123
  0
VERTEX
  8
LAYER_1
 10
55.7566
 20
-106.806
  0
SEQEND
  0
POLYLINE
  8
LAYER_1
 40
0.1764
 41
0.1764
 62
1
 66
1
 10
0
 20
0
 30
0
  0
VERTEX
  8
LAYER_1
 10
62.6851
 20
-102.8081
  0
VERTEX
  8
LAYER_1
 10
55.7566
 20
-106.806
  0
SEQEND
  0
POLYLINE
  8
LAYER_1
 40
0.1764
 41
0.1764
 62
1
 66
1
 10
0
 20
0
 30
0
  0
VERTEX
  8
LAYER_1
 10
62.6851
 20
-104.8071
  0
VERTEX
  8
LAYER_1
 10
60.9572
 20
-103.8076
  0
SEQEND
  0
POLYLINE
  8
LAYER_1
 40
0.1764
 41
0.1764
 62
1
 66
1
 10
0
 20
0
 30
0
  0
VERTEX
  8
LAYER_1
 10
62.6851
 20
-106.806
  0
VERTEX
  8
LAYER_1
 10
59.2208
 20
-104.8071
  0
SEQEND
  0
POLYLINE
  8
LAYER_1
 40
0.1764
 41
0.1764
 62
1
 66
1
 10
0
 20
0
 30
0
  0
VERTEX
  8
LAYER_1
 10
62.6851
 20
-108.8049
  0
VERTEX
  8
LAYER_1
 10
57.4929
 20
-105.8065
  0
SEQEND
  0
TEXT
  8
LAYER_1
 10
60.8088
 20
-103.6205
 11
60.8088
 21
-103.6205
 40
4.1737
 41
0.5
 50
89.99999999
  1
B
  0
ENDBLK
  0
BLOCK
  8
LAYER_1
  2
AIGNBL0101004D
 70
64
 10
0
 20
0
 30
0
  3
AIGNBL0101004D
  0
INSERT
  8
LAYER_1
  2
AIGNBL0102004E
 10
0
 20
0
 30
0
  0
TEXT
  8
LAYER_1
 10
57.8383
 20
-113.6169
 11
57.8383
 21
-113.6169
 40
4.1737
 41
0.5
 50
270
  1
A
  0
ENDBLK
  0
BLOCK
  8
LAYER_1
  2
AIGNBL0101004F
 70
64
 10
0
 20
0
 30
0
  3
AIGNBL0101004F
  0
POLYLINE
  8
LAYER_1
 40
0.1764
 41
0.1764
 62
1
 66
1
 10
0
 20
0
 30
0
  0
VERTEX
  8
LAYER_1
 10
55.2566
 20
-123.3146
  0
VERTEX
  8
LAYER_1
 10
55.2566
 20
-107.3147
  0
VERTEX
  8
LAYER_1
 10
48.7601
 20
-111.0669
  0
SEQEND
  0
POLYLINE
  8
LAYER_1
 40
0.1764
 41
0.1764
 62
1
 66
1
 10
0
 20
0
 30
0
  0
VERTEX
  8
LAYER_1
 10
55.2566
 20
-109.3136
  0
VERTEX
  8
LAYER_1
 10
55.2566
 20
-107.3147
  0
SEQEND
  0
POLYLINE
  8
LAYER_1
 40
0.1764
 41
0.1764
 62
1
 66
1
 10
0
 20
0
 30
0
  0
VERTEX
  8
LAYER_1
 10
55.2566
 20
-111.3126
  0
VERTEX
  8
LAYER_1
 10
55.2566
 20
-109.3136
  0
SEQEND
  0
POLYLINE
  8
LAYER_1
 40
0.1764
 41
0.1764
 62
1
 66
1
 10
0
 20
0
 30
0
  0
VERTEX
  8
LAYER_1
 10
55.2566
 20
-113.3115
  0
VERTEX
  8
LAYER_1
 10
55.2566
 20
-111.3126
  0
SEQEND
  0
POLYLINE
  8
LAYER_1
 40
0.1764
 41
0.1764
 62
1
 66
1
 10
0
 20
0
 30
0
  0
VERTEX
  8
LAYER_1
 10
55.2566
 20
-115.3104
  0
VERTEX
  8
LAYER_1
 10
55.2566
 20
-113.3115
  0
SEQEND
  0
POLYLINE
  8
LAYER_1
 40
0.1764
 41
0.1764
 62
1
 66
1
 10
0
 20
0
 30
0
  0
VERTEX
  8
LAYER_1
 10
55.2566
 20
-117.3093
  0
VERTEX
  8
LAYER_1
 10
55.2566
 20
-115.3104
  0
SEQEND
  0
POLYLINE
  8
LAYER_1
 40
0.1764
 41
0.1764
 62
1
 66
1
 10
0
 20
0
 30
0
  0
VERTEX
  8
LAYER_1
 10
55.2566
 20
-119.3083
  0
VERTEX
  8
LAYER_1
 10
55.2566
 20
-117.3093
  0
SEQEND
  0
POLYLINE
  8
LAYER_1
 40
0.1764
 41
0.1764
 62
1
 66
1
 10
0
 20
0
 30
0
  0
VERTEX
  8
LAYER_1
 10
55.2566
 20
-121.3072
  0
VERTEX
  8
LAYER_1
 10
55.2566
 20
-119.3083
  0
SEQEND
  0
POLYLINE
  8
LAYER_1
 40
0.1764
 41
0.1764
 62
1
 66
1
 10
0
 20
0
 30
0
  0
VERTEX
  8
LAYER_1
 10
55.2566
 20
-109.3136
  0
VERTEX
  8
LAYER_1
 10
48.3874
 20
-113.2776
  0
SEQEND
  0
POLYLINE
  8
LAYER_1
 40
0.1764
 41
0.1764
 62
1
 66
1
 10
0
 20
0
 30
0
  0
VERTEX
  8
LAYER_1
 10
55.2566
 20
-111.3125
  0
VERTEX
  8
LAYER_1
 10
48.6161
 20
-115.1495
  0
SEQEND
  0
POLYLINE
  8
LAYER_1
 40
0.1764
 41
0.1764
 62
1
 66
1
 10
0
 20
0
 30
0
  0
VERTEX
  8
LAYER_1
 10
55.2566
 20
-113.3115
  0
VERTEX
  8
LAYER_1
 10
48.6838
 20
-117.106
  0
SEQEND
  0
POLYLINE
  8
LAYER_1
 40
0.1764
 41
0.1764
 62
1
 66
1
 10
0
 20
0
 30
0
  0
VERTEX
  8
LAYER_1
 10
48.3281
 20
-119.3083
  0
VERTEX
  8
LAYER_1
 10
48.3281
 20
-111.3125
  0
SEQEND
  0
POLYLINE
  8
LAYER_1
 40
0.1764
 41
0.1764
 62
1
 66
1
 10
0
 20
0
 30
0
  0
VERTEX
  8
LAYER_1
 10
48.7601
 20
-111.0669
  0
VERTEX
  8
LAYER_1
 10
48.3281
 20
-111.3125
  0
SEQEND
  0
POLYLINE
  8
LAYER_1
 40
0.1764
 41
0.1764
 62
1
 66
1
 10
0
 20
0
 30
0
  0
VERTEX
  8
LAYER_1
 10
48.6161
 20
-115.1495
  0
VERTEX
  8
LAYER_1
 10
48.3281
 20
-115.3104
  0
SEQEND
  0
POLYLINE
  8
LAYER_1
 40
0.1764
 41
0.1764
 62
1
 66
1
 10
0
 20
0
 30
0
  0
VERTEX
  8
LAYER_1
 10
48.6838
 20
-117.106
  0
VERTEX
  8
LAYER_1
 10
48.3281
 20
-117.3093
  0
SEQEND
  0
POLYLINE
  8
LAYER_1
 40
0.1764
 41
0.1764
 62
1
 66
1
 10
0
 20
0
 30
0
  0
VERTEX
  8
LAYER_1
 10
55.2566
 20
-123.3146
  0
VERTEX
  8
LAYER_1
 10
48.3281
 20
-119.3082
  0
SEQEND
  0
POLYLINE
  8
LAYER_1
 40
0.1764
 41
0.1764
 62
1
 66
1
 10
0
 20
0
 30
0
  0
VERTEX
  8
LAYER_1
 10
55.2566
 20
-115.3104
  0
VERTEX
  8
LAYER_1
 10
48.3281
 20
-119.3082
  0
SEQEND
  0
POLYLINE
  8
LAYER_1
 40
0.1764
 41
0.1764
 62
1
 66
1
 10
0
 20
0
 30
0
  0
VERTEX
  8
LAYER_1
 10
55.2566
 20
-117.3093
  0
VERTEX
  8
LAYER_1
 10
53.5287
 20
-116.3098
  0
SEQEND
  0
POLYLINE
  8
LAYER_1
 40
0.1764
 41
0.1764
 62
1
 66
1
 10
0
 20
0
 30
0
  0
VERTEX
  8
LAYER_1
 10
55.2566
 20
-119.3082
  0
VERTEX
  8
LAYER_1
 10
51.7923
 20
-117.3093
  0
SEQEND
  0
POLYLINE
  8
LAYER_1
 40
0.1764
 41
0.1764
 62
1
 66
1
 10
0
 20
0
 30
0
  0
VERTEX
  8
LAYER_1
 10
55.2566
 20
-121.3072
  0
VERTEX
  8
LAYER_1
 10
50.0644
 20
-118.3088
  0
SEQEND
  0
TEXT
  8
LAYER_1
 10
53.3803
 20
-116.1228
 11
53.3803
 21
-116.1228
 40
4.1737
 41
0.5
 50
89.99999999
  1
B
  0
ENDBLK
  0
BLOCK
  8
LAYER_1
  2
AIGNBL01010050
 70
64
 10
0
 20
0
 30
0
  3
AIGNBL01010050
  0
INSERT
  8
LAYER_1
  2
AIGNBL01020051
 10
0
 20
0
 30
0
  0
TEXT
  8
LAYER_1
 10
35.4769
 20
-126.1107
 11
35.4769
 21
-126.1107
 40
4.1737
 41
0.5
 50
270
  1
A
  0
ENDBLK
  0
BLOCK
  8
LAYER_1
  2
AIGNBL01010052
 70
64
 10
0
 20
0
 30
0
  3
AIGNBL01010052
  0
POLYLINE
  8
LAYER_1
 40
0.1764
 41
0.1764
 62
1
 66
1
 10
0
 20
0
 30
0
  0
VERTEX
  8
LAYER_1
 10
47.7899
 20
-135.808
  0
VERTEX
  8
LAYER_1
 10
47.7899
 20
-119.8081
  0
VERTEX
  8
LAYER_1
 10
41.2934
 20
-123.5603
  0
SEQEND
  0
POLYLINE
  8
LAYER_1
 40
0.1764
 41
0.1764
 62
1
 66
1
 10
0
 20
0
 30
0
  0
VERTEX
  8
LAYER_1
 10
47.7899
 20
-121.807
  0
VERTEX
  8
LAYER_1
 10
47.7899
 20
-119.8081
  0
SEQEND
  0
POLYLINE
  8
LAYER_1
 40
0.1764
 41
0.1764
 62
1
 66
1
 10
0
 20
0
 30
0
  0
VERTEX
  8
LAYER_1
 10
47.7899
 20
-123.806
  0
VERTEX
  8
LAYER_1
 10
47.7899
 20
-121.807
  0
SEQEND
  0
POLYLINE
  8
LAYER_1
 40
0.1764
 41
0.1764
 62
1
 66
1
 10
0
 20
0
 30
0
  0
VERTEX
  8
LAYER_1
 10
47.7899
 20
-125.8049
  0
VERTEX
  8
LAYER_1
 10
47.7899
 20
-123.806
  0
SEQEND
  0
POLYLINE
  8
LAYER_1
 40
0.1764
 41
0.1764
 62
1
 66
1
 10
0
 20
0
 30
0
  0
VERTEX
  8
LAYER_1
 10
47.7899
 20
-127.8038
  0
VERTEX
  8
LAYER_1
 10
47.7899
 20
-125.8049
  0
SEQEND
  0
POLYLINE
  8
LAYER_1
 40
0.1764
 41
0.1764
 62
1
 66
1
 10
0
 20
0
 30
0
  0
VERTEX
  8
LAYER_1
 10
47.7899
 20
-129.8028
  0
VERTEX
  8
LAYER_1
 10
47.7899
 20
-127.8038
  0
SEQEND
  0
POLYLINE
  8
LAYER_1
 40
0.1764
 41
0.1764
 62
1
 66
1
 10
0
 20
0
 30
0
  0
VERTEX
  8
LAYER_1
 10
47.7899
 20
-131.8017
  0
VERTEX
  8
LAYER_1
 10
47.7899
 20
-129.8028
  0
SEQEND
  0
POLYLINE
  8
LAYER_1
 40
0.1764
 41
0.1764
 62
1
 66
1
 10
0
 20
0
 30
0
  0
VERTEX
  8
LAYER_1
 10
47.7899
 20
-133.8006
  0
VERTEX
  8
LAYER_1
 10
47.7899
 20
-131.8017
  0
SEQEND
  0
POLYLINE
  8
LAYER_1
 40
0.1764
 41
0.1764
 62
1
 66
1
 10
0
 20
0
 30
0
  0
VERTEX
  8
LAYER_1
 10
47.7899
 20
-121.807
  0
VERTEX
  8
LAYER_1
 10
40.9207
 20
-125.771
  0
SEQEND
  0
POLYLINE
  8
LAYER_1
 40
0.1764
 41
0.1764
 62
1
 66
1
 10
0
 20
0
 30
0
  0
VERTEX
  8
LAYER_1
 10
47.7899
 20
-123.8059
  0
VERTEX
  8
LAYER_1
 10
41.1494
 20
-127.6429
  0
SEQEND
  0
POLYLINE
  8
LAYER_1
 40
0.1764
 41
0.1764
 62
1
 66
1
 10
0
 20
0
 30
0
  0
VERTEX
  8
LAYER_1
 10
47.7899
 20
-125.8049
  0
VERTEX
  8
LAYER_1
 10
41.2172
 20
-129.5995
  0
SEQEND
  0
POLYLINE
  8
LAYER_1
 40
0.1764
 41
0.1764
 62
1
 66
1
 10
0
 20
0
 30
0
  0
VERTEX
  8
LAYER_1
 10
40.8614
 20
-131.8017
  0
VERTEX
  8
LAYER_1
 10
40.8614
 20
-123.8059
  0
SEQEND
  0
POLYLINE
  8
LAYER_1
 40
0.1764
 41
0.1764
 62
1
 66
1
 10
0
 20
0
 30
0
  0
VERTEX
  8
LAYER_1
 10
41.2934
 20
-123.5603
  0
VERTEX
  8
LAYER_1
 10
40.8614
 20
-123.8059
  0
SEQEND
  0
POLYLINE
  8
LAYER_1
 40
0.1764
 41
0.1764
 62
1
 66
1
 10
0
 20
0
 30
0
  0
VERTEX
  8
LAYER_1
 10
41.1494
 20
-127.6429
  0
VERTEX
  8
LAYER_1
 10
40.8614
 20
-127.8038
  0
SEQEND
  0
POLYLINE
  8
LAYER_1
 40
0.1764
 41
0.1764
 62
1
 66
1
 10
0
 20
0
 30
0
  0
VERTEX
  8
LAYER_1
 10
41.2172
 20
-129.5994
  0
VERTEX
  8
LAYER_1
 10
40.8614
 20
-129.8027
  0
SEQEND
  0
POLYLINE
  8
LAYER_1
 40
0.1764
 41
0.1764
 62
1
 66
1
 10
0
 20
0
 30
0
  0
VERTEX
  8
LAYER_1
 10
47.7899
 20
-135.808
  0
VERTEX
  8
LAYER_1
 10
40.8614
 20
-131.8017
  0
SEQEND
  0
POLYLINE
  8
LAYER_1
 40
0.1764
 41
0.1764
 62
1
 66
1
 10
0
 20
0
 30
0
  0
VERTEX
  8
LAYER_1
 10
47.7899
 20
-127.8038
  0
VERTEX
  8
LAYER_1
 10
40.8614
 20
-131.8017
  0
SEQEND
  0
POLYLINE
  8
LAYER_1
 40
0.1764
 41
0.1764
 62
1
 66
1
 10
0
 20
0
 30
0
  0
VERTEX
  8
LAYER_1
 10
47.7899
 20
-129.8027
  0
VERTEX
  8
LAYER_1
 10
46.062
 20
-128.8033
  0
SEQEND
  0
POLYLINE
  8
LAYER_1
 40
0.1764
 41
0.1764
 62
1
 66
1
 10
0
 20
0
 30
0
  0
VERTEX
  8
LAYER_1
 10
47.7899
 20
-131.8017
  0
VERTEX
  8
LAYER_1
 10
44.3257
 20
-129.8027
  0
SEQEND
  0
POLYLINE
  8
LAYER_1
 40
0.1764
 41
0.1764
 62
1
 66
1
 10
0
 20
0
 30
0
  0
VERTEX
  8
LAYER_1
 10
47.7899
 20
-133.8006
  0
VERTEX
  8
LAYER_1
 10
42.5978
 20
-130.8022
  0
SEQEND
  0
TEXT
  8
LAYER_1
 10
45.9136
 20
-128.6161
 11
45.9136
 21
-128.6161
 40
4.1737
 41
0.5
 50
89.99999999
  1
B
  0
ENDBLK
  0
BLOCK
  8
LAYER_1
  2
AIGNBL01010053
 70
64
 10
0
 20
0
 30
0
  3
AIGNBL01010053
  0
INSERT
  8
LAYER_1
  2
AIGNBL01020054
 10
0
 20
0
 30
0
  0
TEXT
  8
LAYER_1
 10
42.9431
 20
-138.6126
 11
42.9431
 21
-138.6126
 40
4.1737
 41
0.5
 50
270
  1
A
  0
ENDBLK
  0
BLOCK
  8
LAYER_1
  2
AIGNBL01010055
 70
64
 10
0
 20
0
 30
0
  3
AIGNBL01010055
  0
POLYLINE
  8
LAYER_1
 40
0.1764
 41
0.1764
 62
1
 66
1
 10
0
 20
0
 30
0
  0
VERTEX
  8
LAYER_1
 10
40.3614
 20
-148.3103
  0
VERTEX
  8
LAYER_1
 10
40.3614
 20
-132.3104
  0
VERTEX
  8
LAYER_1
 10
33.8649
 20
-136.0626
  0
SEQEND
  0
POLYLINE
  8
LAYER_1
 40
0.1764
 41
0.1764
 62
1
 66
1
 10
0
 20
0
 30
0
  0
VERTEX
  8
LAYER_1
 10
40.3614
 20
-134.3093
  0
VERTEX
  8
LAYER_1
 10
40.3614
 20
-132.3104
  0
SEQEND
  0
POLYLINE
  8
LAYER_1
 40
0.1764
 41
0.1764
 62
1
 66
1
 10
0
 20
0
 30
0
  0
VERTEX
  8
LAYER_1
 10
40.3614
 20
-136.3082
  0
VERTEX
  8
LAYER_1
 10
40.3614
 20
-134.3093
  0
SEQEND
  0
POLYLINE
  8
LAYER_1
 40
0.1764
 41
0.1764
 62
1
 66
1
 10
0
 20
0
 30
0
  0
VERTEX
  8
LAYER_1
 10
40.3614
 20
-138.3071
  0
VERTEX
  8
LAYER_1
 10
40.3614
 20
-136.3082
  0
SEQEND
  0
POLYLINE
  8
LAYER_1
 40
0.1764
 41
0.1764
 62
1
 66
1
 10
0
 20
0
 30
0
  0
VERTEX
  8
LAYER_1
 10
40.3614
 20
-140.3061
  0
VERTEX
  8
LAYER_1
 10
40.3614
 20
-138.3071
  0
SEQEND
  0
POLYLINE
  8
LAYER_1
 40
0.1764
 41
0.1764
 62
1
 66
1
 10
0
 20
0
 30
0
  0
VERTEX
  8
LAYER_1
 10
40.3614
 20
-142.305
  0
VERTEX
  8
LAYER_1
 10
40.3614
 20
-140.3061
  0
SEQEND
  0
POLYLINE
  8
LAYER_1
 40
0.1764
 41
0.1764
 62
1
 66
1
 10
0
 20
0
 30
0
  0
VERTEX
  8
LAYER_1
 10
40.3614
 20
-144.3039
  0
VERTEX
  8
LAYER_1
 10
40.3614
 20
-142.305
  0
SEQEND
  0
POLYLINE
  8
LAYER_1
 40
0.1764
 41
0.1764
 62
1
 66
1
 10
0
 20
0
 30
0
  0
VERTEX
  8
LAYER_1
 10
40.3614
 20
-146.3029
  0
VERTEX
  8
LAYER_1
 10
40.3614
 20
-144.3039
  0
SEQEND
  0
POLYLINE
  8
LAYER_1
 40
0.1764
 41
0.1764
 62
1
 66
1
 10
0
 20
0
 30
0
  0
VERTEX
  8
LAYER_1
 10
40.3614
 20
-134.3093
  0
VERTEX
  8
LAYER_1
 10
33.4922
 20
-138.2733
  0
SEQEND
  0
POLYLINE
  8
LAYER_1
 40
0.1764
 41
0.1764
 62
1
 66
1
 10
0
 20
0
 30
0
  0
VERTEX
  8
LAYER_1
 10
40.3614
 20
-136.3082
  0
VERTEX
  8
LAYER_1
 10
33.7209
 20
-140.1451
  0
SEQEND
  0
POLYLINE
  8
LAYER_1
 40
0.1764
 41
0.1764
 62
1
 66
1
 10
0
 20
0
 30
0
  0
VERTEX
  8
LAYER_1
 10
40.3614
 20
-138.3071
  0
VERTEX
  8
LAYER_1
 10
33.7887
 20
-142.1017
  0
SEQEND
  0
POLYLINE
  8
LAYER_1
 40
0.1764
 41
0.1764
 62
1
 66
1
 10
0
 20
0
 30
0
  0
VERTEX
  8
LAYER_1
 10
33.4329
 20
-144.3039
  0
VERTEX
  8
LAYER_1
 10
33.4329
 20
-136.3082
  0
SEQEND
  0
POLYLINE
  8
LAYER_1
 40
0.1764
 41
0.1764
 62
1
 66
1
 10
0
 20
0
 30
0
  0
VERTEX
  8
LAYER_1
 10
33.8649
 20
-136.0626
  0
VERTEX
  8
LAYER_1
 10
33.4329
 20
-136.3082
  0
SEQEND
  0
POLYLINE
  8
LAYER_1
 40
0.1764
 41
0.1764
 62
1
 66
1
 10
0
 20
0
 30
0
  0
VERTEX
  8
LAYER_1
 10
33.7209
 20
-140.1451
  0
VERTEX
  8
LAYER_1
 10
33.4329
 20
-140.3061
  0
SEQEND
  0
POLYLINE
  8
LAYER_1
 40
0.1764
 41
0.1764
 62
1
 66
1
 10
0
 20
0
 30
0
  0
VERTEX
  8
LAYER_1
 10
33.7887
 20
-142.1017
  0
VERTEX
  8
LAYER_1
 10
33.4329
 20
-142.305
  0
SEQEND
  0
POLYLINE
  8
LAYER_1
 40
0.1764
 41
0.1764
 62
1
 66
1
 10
0
 20
0
 30
0
  0
VERTEX
  8
LAYER_1
 10
40.3614
 20
-148.3102
  0
VERTEX
  8
LAYER_1
 10
33.4329
 20
-144.3039
  0
SEQEND
  0
POLYLINE
  8
LAYER_1
 40
0.1764
 41
0.1764
 62
1
 66
1
 10
0
 20
0
 30
0
  0
VERTEX
  8
LAYER_1
 10
40.3614
 20
-140.306
  0
VERTEX
  8
LAYER_1
 10
33.4329
 20
-144.3039
  0
SEQEND
  0
POLYLINE
  8
LAYER_1
 40
0.1764
 41
0.1764
 62
1
 66
1
 10
0
 20
0
 30
0
  0
VERTEX
  8
LAYER_1
 10
40.3614
 20
-142.305
  0
VERTEX
  8
LAYER_1
 10
38.6335
 20
-141.3055
  0
SEQEND
  0
POLYLINE
  8
LAYER_1
 40
0.1764
 41
0.1764
 62
1
 66
1
 10
0
 20
0
 30
0
  0
VERTEX
  8
LAYER_1
 10
40.3614
 20
-144.3039
  0
VERTEX
  8
LAYER_1
 10
36.8972
 20
-142.305
  0
SEQEND
  0
POLYLINE
  8
LAYER_1
 40
0.1764
 41
0.1764
 62
1
 66
1
 10
0
 20
0
 30
0
  0
VERTEX
  8
LAYER_1
 10
40.3614
 20
-146.3028
  0
VERTEX
  8
LAYER_1
 10
35.1693
 20
-143.3044
  0
SEQEND
  0
TEXT
  8
LAYER_1
 10
38.4851
 20
-141.1183
 11
38.4851
 21
-141.1183
 40
4.1737
 41
0.5
 50
89.99999999
  1
B
  0
ENDBLK
  0
BLOCK
  8
LAYER_1
  2
AIGNBL01010056
 70
64
 10
0
 20
0
 30
0
  3
AIGNBL01010056
  0
INSERT
  8
LAYER_1
  2
AIGNBL01020057
 10
0
 20
0
 30
0
  0
TEXT
  8
LAYER_1
 10
50.3721
 20
-126.1107
 11
50.3721
 21
-126.1107
 40
4.1737
 41
0.5
 50
270
  1
A
  0
ENDBLK
  0
BLOCK
  8
LAYER_1
  2
AIGNBL01010058
 70
64
 10
0
 20
0
 30
0
  3
AIGNBL01010058
  0
POLYLINE
  8
LAYER_1
 40
0.1764
 41
0.1764
 62
1
 66
1
 10
0
 20
0
 30
0
  0
VERTEX
  8
LAYER_1
 10
62.6851
 20
-135.808
  0
VERTEX
  8
LAYER_1
 10
62.6851
 20
-119.8081
  0
VERTEX
  8
LAYER_1
 10
56.1886
 20
-123.5603
  0
SEQEND
  0
POLYLINE
  8
LAYER_1
 40
0.1764
 41
0.1764
 62
1
 66
1
 10
0
 20
0
 30
0
  0
VERTEX
  8
LAYER_1
 10
62.6851
 20
-121.807
  0
VERTEX
  8
LAYER_1
 10
62.6851
 20
-119.8081
  0
SEQEND
  0
POLYLINE
  8
LAYER_1
 40
0.1764
 41
0.1764
 62
1
 66
1
 10
0
 20
0
 30
0
  0
VERTEX
  8
LAYER_1
 10
62.6851
 20
-123.806
  0
VERTEX
  8
LAYER_1
 10
62.6851
 20
-121.807
  0
SEQEND
  0
POLYLINE
  8
LAYER_1
 40
0.1764
 41
0.1764
 62
1
 66
1
 10
0
 20
0
 30
0
  0
VERTEX
  8
LAYER_1
 10
62.6851
 20
-125.8049
  0
VERTEX
  8
LAYER_1
 10
62.6851
 20
-123.806
  0
SEQEND
  0
POLYLINE
  8
LAYER_1
 40
0.1764
 41
0.1764
 62
1
 66
1
 10
0
 20
0
 30
0
  0
VERTEX
  8
LAYER_1
 10
62.6851
 20
-127.8038
  0
VERTEX
  8
LAYER_1
 10
62.6851
 20
-125.8049
  0
SEQEND
  0
POLYLINE
  8
LAYER_1
 40
0.1764
 41
0.1764
 62
1
 66
1
 10
0
 20
0
 30
0
  0
VERTEX
  8
LAYER_1
 10
62.6851
 20
-129.8028
  0
VERTEX
  8
LAYER_1
 10
62.6851
 20
-127.8038
  0
SEQEND
  0
POLYLINE
  8
LAYER_1
 40
0.1764
 41
0.1764
 62
1
 66
1
 10
0
 20
0
 30
0
  0
VERTEX
  8
LAYER_1
 10
62.6851
 20
-131.8017
  0
VERTEX
  8
LAYER_1
 10
62.6851
 20
-129.8028
  0
SEQEND
  0
POLYLINE
  8
LAYER_1
 40
0.1764
 41
0.1764
 62
1
 66
1
 10
0
 20
0
 30
0
  0
VERTEX
  8
LAYER_1
 10
62.6851
 20
-133.8006
  0
VERTEX
  8
LAYER_1
 10
62.6851
 20
-131.8017
  0
SEQEND
  0
POLYLINE
  8
LAYER_1
 40
0.1764
 41
0.1764
 62
1
 66
1
 10
0
 20
0
 30
0
  0
VERTEX
  8
LAYER_1
 10
62.6851
 20
-121.807
  0
VERTEX
  8
LAYER_1
 10
55.8159
 20
-125.771
  0
SEQEND
  0
POLYLINE
  8
LAYER_1
 40
0.1764
 41
0.1764
 62
1
 66
1
 10
0
 20
0
 30
0
  0
VERTEX
  8
LAYER_1
 10
62.6851
 20
-123.8059
  0
VERTEX
  8
LAYER_1
 10
56.0446
 20
-127.6429
  0
SEQEND
  0
POLYLINE
  8
LAYER_1
 40
0.1764
 41
0.1764
 62
1
 66
1
 10
0
 20
0
 30
0
  0
VERTEX
  8
LAYER_1
 10
62.6851
 20
-125.8049
  0
VERTEX
  8
LAYER_1
 10
56.1123
 20
-129.5995
  0
SEQEND
  0
POLYLINE
  8
LAYER_1
 40
0.1764
 41
0.1764
 62
1
 66
1
 10
0
 20
0
 30
0
  0
VERTEX
  8
LAYER_1
 10
55.7566
 20
-131.8017
  0
VERTEX
  8
LAYER_1
 10
55.7566
 20
-123.8059
  0
SEQEND
  0
POLYLINE
  8
LAYER_1
 40
0.1764
 41
0.1764
 62
1
 66
1
 10
0
 20
0
 30
0
  0
VERTEX
  8
LAYER_1
 10
56.1886
 20
-123.5603
  0
VERTEX
  8
LAYER_1
 10
55.7566
 20
-123.8059
  0
SEQEND
  0
POLYLINE
  8
LAYER_1
 40
0.1764
 41
0.1764
 62
1
 66
1
 10
0
 20
0
 30
0
  0
VERTEX
  8
LAYER_1
 10
56.0446
 20
-127.6429
  0
VERTEX
  8
LAYER_1
 10
55.7566
 20
-127.8038
  0
SEQEND
  0
POLYLINE
  8
LAYER_1
 40
0.1764
 41
0.1764
 62
1
 66
1
 10
0
 20
0
 30
0
  0
VERTEX
  8
LAYER_1
 10
56.1123
 20
-129.5994
  0
VERTEX
  8
LAYER_1
 10
55.7566
 20
-129.8027
  0
SEQEND
  0
POLYLINE
  8
LAYER_1
 40
0.1764
 41
0.1764
 62
1
 66
1
 10
0
 20
0
 30
0
  0
VERTEX
  8
LAYER_1
 10
62.6851
 20
-135.808
  0
VERTEX
  8
LAYER_1
 10
55.7566
 20
-131.8017
  0
SEQEND
  0
POLYLINE
  8
LAYER_1
 40
0.1764
 41
0.1764
 62
1
 66
1
 10
0
 20
0
 30
0
  0
VERTEX
  8
LAYER_1
 10
62.6851
 20
-127.8038
  0
VERTEX
  8
LAYER_1
 10
55.7566
 20
-131.8017
  0
SEQEND
  0
POLYLINE
  8
LAYER_1
 40
0.1764
 41
0.1764
 62
1
 66
1
 10
0
 20
0
 30
0
  0
VERTEX
  8
LAYER_1
 10
62.6851
 20
-129.8027
  0
VERTEX
  8
LAYER_1
 10
60.9572
 20
-128.8033
  0
SEQEND
  0
POLYLINE
  8
LAYER_1
 40
0.1764
 41
0.1764
 62
1
 66
1
 10
0
 20
0
 30
0
  0
VERTEX
  8
LAYER_1
 10
62.6851
 20
-131.8017
  0
VERTEX
  8
LAYER_1
 10
59.2208
 20
-129.8027
  0
SEQEND
  0
POLYLINE
  8
LAYER_1
 40
0.1764
 41
0.1764
 62
1
 66
1
 10
0
 20
0
 30
0
  0
VERTEX
  8
LAYER_1
 10
62.6851
 20
-133.8006
  0
VERTEX
  8
LAYER_1
 10
57.4929
 20
-130.8022
  0
SEQEND
  0
TEXT
  8
LAYER_1
 10
60.8088
 20
-128.6161
 11
60.8088
 21
-128.6161
 40
4.1737
 41
0.5
 50
89.99999999
  1
B
  0
ENDBLK
  0
BLOCK
  8
LAYER_1
  2
AIGNBL01010059
 70
64
 10
0
 20
0
 30
0
  3
AIGNBL01010059
  0
INSERT
  8
LAYER_1
  2
AIGNBL0102005A
 10
0
 20
0
 30
0
  0
TEXT
  8
LAYER_1
 10
57.8383
 20
-138.6126
 11
57.8383
 21
-138.6126
 40
4.1737
 41
0.5
 50
270
  1
A
  0
ENDBLK
  0
BLOCK
  8
LAYER_1
  2
AIGNBL0101005B
 70
64
 10
0
 20
0
 30
0
  3
AIGNBL0101005B
  0
POLYLINE
  8
LAYER_1
 40
0.1764
 41
0.1764
 62
1
 66
1
 10
0
 20
0
 30
0
  0
VERTEX
  8
LAYER_1
 10
55.2566
 20
-148.3103
  0
VERTEX
  8
LAYER_1
 10
55.2566
 20
-132.3104
  0
VERTEX
  8
LAYER_1
 10
48.7601
 20
-136.0626
  0
SEQEND
  0
POLYLINE
  8
LAYER_1
 40
0.1764
 41
0.1764
 62
1
 66
1
 10
0
 20
0
 30
0
  0
VERTEX
  8
LAYER_1
 10
55.2566
 20
-134.3093
  0
VERTEX
  8
LAYER_1
 10
55.2566
 20
-132.3104
  0
SEQEND
  0
POLYLINE
  8
LAYER_1
 40
0.1764
 41
0.1764
 62
1
 66
1
 10
0
 20
0
 30
0
  0
VERTEX
  8
LAYER_1
 10
55.2566
 20
-136.3082
  0
VERTEX
  8
LAYER_1
 10
55.2566
 20
-134.3093
  0
SEQEND
  0
POLYLINE
  8
LAYER_1
 40
0.1764
 41
0.1764
 62
1
 66
1
 10
0
 20
0
 30
0
  0
VERTEX
  8
LAYER_1
 10
55.2566
 20
-138.3071
  0
VERTEX
  8
LAYER_1
 10
55.2566
 20
-136.3082
  0
SEQEND
  0
POLYLINE
  8
LAYER_1
 40
0.1764
 41
0.1764
 62
1
 66
1
 10
0
 20
0
 30
0
  0
VERTEX
  8
LAYER_1
 10
55.2566
 20
-140.3061
  0
VERTEX
  8
LAYER_1
 10
55.2566
 20
-138.3071
  0
SEQEND
  0
POLYLINE
  8
LAYER_1
 40
0.1764
 41
0.1764
 62
1
 66
1
 10
0
 20
0
 30
0
  0
VERTEX
  8
LAYER_1
 10
55.2566
 20
-142.305
  0
VERTEX
  8
LAYER_1
 10
55.2566
 20
-140.3061
  0
SEQEND
  0
POLYLINE
  8
LAYER_1
 40
0.1764
 41
0.1764
 62
1
 66
1
 10
0
 20
0
 30
0
  0
VERTEX
  8
LAYER_1
 10
55.2566
 20
-144.3039
  0
VERTEX
  8
LAYER_1
 10
55.2566
 20
-142.305
  0
SEQEND
  0
POLYLINE
  8
LAYER_1
 40
0.1764
 41
0.1764
 62
1
 66
1
 10
0
 20
0
 30
0
  0
VERTEX
  8
LAYER_1
 10
55.2566
 20
-146.3029
  0
VERTEX
  8
LAYER_1
 10
55.2566
 20
-144.3039
  0
SEQEND
  0
POLYLINE
  8
LAYER_1
 40
0.1764
 41
0.1764
 62
1
 66
1
 10
0
 20
0
 30
0
  0
VERTEX
  8
LAYER_1
 10
55.2566
 20
-134.3093
  0
VERTEX
  8
LAYER_1
 10
48.3874
 20
-138.2733
  0
SEQEND
  0
POLYLINE
  8
LAYER_1
 40
0.1764
 41
0.1764
 62
1
 66
1
 10
0
 20
0
 30
0
  0
VERTEX
  8
LAYER_1
 10
55.2566
 20
-136.3082
  0
VERTEX
  8
LAYER_1
 10
48.6161
 20
-140.1451
  0
SEQEND
  0
POLYLINE
  8
LAYER_1
 40
0.1764
 41
0.1764
 62
1
 66
1
 10
0
 20
0
 30
0
  0
VERTEX
  8
LAYER_1
 10
55.2566
 20
-138.3071
  0
VERTEX
  8
LAYER_1
 10
48.6838
 20
-142.1017
  0
SEQEND
  0
POLYLINE
  8
LAYER_1
 40
0.1764
 41
0.1764
 62
1
 66
1
 10
0
 20
0
 30
0
  0
VERTEX
  8
LAYER_1
 10
48.3281
 20
-144.3039
  0
VERTEX
  8
LAYER_1
 10
48.3281
 20
-136.3082
  0
SEQEND
  0
POLYLINE
  8
LAYER_1
 40
0.1764
 41
0.1764
 62
1
 66
1
 10
0
 20
0
 30
0
  0
VERTEX
  8
LAYER_1
 10
48.7601
 20
-136.0626
  0
VERTEX
  8
LAYER_1
 10
48.3281
 20
-136.3082
  0
SEQEND
  0
POLYLINE
  8
LAYER_1
 40
0.1764
 41
0.1764
 62
1
 66
1
 10
0
 20
0
 30
0
  0
VERTEX
  8
LAYER_1
 10
48.6161
 20
-140.1451
  0
VERTEX
  8
LAYER_1
 10
48.3281
 20
-140.3061
  0
SEQEND
  0
POLYLINE
  8
LAYER_1
 40
0.1764
 41
0.1764
 62
1
 66
1
 10
0
 20
0
 30
0
  0
VERTEX
  8
LAYER_1
 10
48.6838
 20
-142.1017
  0
VERTEX
  8
LAYER_1
 10
48.3281
 20
-142.305
  0
SEQEND
  0
POLYLINE
  8
LAYER_1
 40
0.1764
 41
0.1764
 62
1
 66
1
 10
0
 20
0
 30
0
  0
VERTEX
  8
LAYER_1
 10
55.2566
 20
-148.3102
  0
VERTEX
  8
LAYER_1
 10
48.3281
 20
-144.3039
  0
SEQEND
  0
POLYLINE
  8
LAYER_1
 40
0.1764
 41
0.1764
 62
1
 66
1
 10
0
 20
0
 30
0
  0
VERTEX
  8
LAYER_1
 10
55.2566
 20
-140.306
  0
VERTEX
  8
LAYER_1
 10
48.3281
 20
-144.3039
  0
SEQEND
  0
POLYLINE
  8
LAYER_1
 40
0.1764
 41
0.1764
 62
1
 66
1
 10
0
 20
0
 30
0
  0
VERTEX
  8
LAYER_1
 10
55.2566
 20
-142.305
  0
VERTEX
  8
LAYER_1
 10
53.5287
 20
-141.3055
  0
SEQEND
  0
POLYLINE
  8
LAYER_1
 40
0.1764
 41
0.1764
 62
1
 66
1
 10
0
 20
0
 30
0
  0
VERTEX
  8
LAYER_1
 10
55.2566
 20
-144.3039
  0
VERTEX
  8
LAYER_1
 10
51.7923
 20
-142.305
  0
SEQEND
  0
POLYLINE
  8
LAYER_1
 40
0.1764
 41
0.1764
 62
1
 66
1
 10
0
 20
0
 30
0
  0
VERTEX
  8
LAYER_1
 10
55.2566
 20
-146.3028
  0
VERTEX
  8
LAYER_1
 10
50.0644
 20
-143.3044
  0
SEQEND
  0
TEXT
  8
LAYER_1
 10
53.3803
 20
-141.1183
 11
53.3803
 21
-141.1183
 40
4.1737
 41
0.5
 50
89.99999999
  1
B
  0
ENDBLK
  0
BLOCK
  8
LAYER_1
  2
AIGNBL0101005C
 70
64
 10
0
 20
0
 30
0
  3
AIGNBL0101005C
  0
INSERT
  8
LAYER_1
  2
AIGNBL0102005D
 10
0
 20
0
 30
0
  0
TEXT
  8
LAYER_1
 10
-10.7945
 20
-220.1299
 11
-10.7945
 21
-220.1299
 40
5.6299
 41
0.5
  1
A
  0
ENDBLK
  0
BLOCK
  8
LAYER_1
  2
AIGNBL0101005E
 70
64
 10
0
 20
0
 30
0
  3
AIGNBL0101005E
  0
POLYLINE
  8
LAYER_1
 40
0.1764
 41
0.1764
 62
1
 66
1
 10
0
 20
0
 30
0
  0
VERTEX
  8
LAYER_1
 10
6.1387
 20
-222.9382
  0
VERTEX
  8
LAYER_1
 10
27.7214
 20
-222.9382
  0
VERTEX
  8
LAYER_1
 10
22.6599
 20
-214.1749
  0
SEQEND
  0
POLYLINE
  8
LAYER_1
 40
0.1764
 41
0.1764
 62
1
 66
1
 10
0
 20
0
 30
0
  0
VERTEX
  8
LAYER_1
 10
25.0249
 20
-222.9382
  0
VERTEX
  8
LAYER_1
 10
27.7213
 20
-222.9382
  0
SEQEND
  0
POLYLINE
  8
LAYER_1
 40
0.1764
 41
0.1764
 62
1
 66
1
 10
0
 20
0
 30
0
  0
VERTEX
  8
LAYER_1
 10
22.3286
 20
-222.9382
  0
VERTEX
  8
LAYER_1
 10
25.0249
 20
-222.9382
  0
SEQEND
  0
POLYLINE
  8
LAYER_1
 40
0.1764
 41
0.1764
 62
1
 66
1
 10
0
 20
0
 30
0
  0
VERTEX
  8
LAYER_1
 10
19.6322
 20
-222.9382
  0
VERTEX
  8
LAYER_1
 10
22.3286
 20
-222.9382
  0
SEQEND
  0
POLYLINE
  8
LAYER_1
 40
0.1764
 41
0.1764
 62
1
 66
1
 10
0
 20
0
 30
0
  0
VERTEX
  8
LAYER_1
 10
16.9358
 20
-222.9382
  0
VERTEX
  8
LAYER_1
 10
19.6322
 20
-222.9382
  0
SEQEND
  0
POLYLINE
  8
LAYER_1
 40
0.1764
 41
0.1764
 62
1
 66
1
 10
0
 20
0
 30
0
  0
VERTEX
  8
LAYER_1
 10
14.2394
 20
-222.9382
  0
VERTEX
  8
LAYER_1
 10
16.9358
 20
-222.9382
  0
SEQEND
  0
POLYLINE
  8
LAYER_1
 40
0.1764
 41
0.1764
 62
1
 66
1
 10
0
 20
0
 30
0
  0
VERTEX
  8
LAYER_1
 10
11.543
 20
-222.9382
  0
VERTEX
  8
LAYER_1
 10
14.2394
 20
-222.9382
  0
SEQEND
  0
POLYLINE
  8
LAYER_1
 40
0.1764
 41
0.1764
 62
1
 66
1
 10
0
 20
0
 30
0
  0
VERTEX
  8
LAYER_1
 10
8.8466
 20
-222.9382
  0
VERTEX
  8
LAYER_1
 10
11.543
 20
-222.9382
  0
SEQEND
  0
POLYLINE
  8
LAYER_1
 40
0.1764
 41
0.1764
 62
1
 66
1
 10
0
 20
0
 30
0
  0
VERTEX
  8
LAYER_1
 10
25.025
 20
-222.9382
  0
VERTEX
  8
LAYER_1
 10
19.6779
 20
-213.6722
  0
SEQEND
  0
POLYLINE
  8
LAYER_1
 40
0.1764
 41
0.1764
 62
1
 66
1
 10
0
 20
0
 30
0
  0
VERTEX
  8
LAYER_1
 10
22.3286
 20
-222.9382
  0
VERTEX
  8
LAYER_1
 10
17.1529
 20
-213.9807
  0
SEQEND
  0
POLYLINE
  8
LAYER_1
 40
0.1764
 41
0.1764
 62
1
 66
1
 10
0
 20
0
 30
0
  0
VERTEX
  8
LAYER_1
 10
19.6322
 20
-222.9382
  0
VERTEX
  8
LAYER_1
 10
14.5136
 20
-214.0721
  0
SEQEND
  0
POLYLINE
  8
LAYER_1
 40
0.1764
 41
0.1764
 62
1
 66
1
 10
0
 20
0
 30
0
  0
VERTEX
  8
LAYER_1
 10
11.543
 20
-213.5922
  0
VERTEX
  8
LAYER_1
 10
22.3286
 20
-213.5922
  0
SEQEND
  0
POLYLINE
  8
LAYER_1
 40
0.1764
 41
0.1764
 62
1
 66
1
 10
0
 20
0
 30
0
  0
VERTEX
  8
LAYER_1
 10
22.6599
 20
-214.1749
  0
VERTEX
  8
LAYER_1
 10
22.3286
 20
-213.5922
  0
SEQEND
  0
POLYLINE
  8
LAYER_1
 40
0.1764
 41
0.1764
 62
1
 66
1
 10
0
 20
0
 30
0
  0
VERTEX
  8
LAYER_1
 10
17.1529
 20
-213.9807
  0
VERTEX
  8
LAYER_1
 10
16.9358
 20
-213.5922
  0
SEQEND
  0
POLYLINE
  8
LAYER_1
 40
0.1764
 41
0.1764
 62
1
 66
1
 10
0
 20
0
 30
0
  0
VERTEX
  8
LAYER_1
 10
14.5136
 20
-214.0721
  0
VERTEX
  8
LAYER_1
 10
14.2394
 20
-213.5922
  0
SEQEND
  0
POLYLINE
  8
LAYER_1
 40
0.1764
 41
0.1764
 62
1
 66
1
 10
0
 20
0
 30
0
  0
VERTEX
  8
LAYER_1
 10
6.1388
 20
-222.9382
  0
VERTEX
  8
LAYER_1
 10
11.543
 20
-213.5922
  0
SEQEND
  0
POLYLINE
  8
LAYER_1
 40
0.1764
 41
0.1764
 62
1
 66
1
 10
0
 20
0
 30
0
  0
VERTEX
  8
LAYER_1
 10
16.9358
 20
-222.9382
  0
VERTEX
  8
LAYER_1
 10
11.543
 20
-213.5922
  0
SEQEND
  0
POLYLINE
  8
LAYER_1
 40
0.1764
 41
0.1764
 62
1
 66
1
 10
0
 20
0
 30
0
  0
VERTEX
  8
LAYER_1
 10
14.2394
 20
-222.9382
  0
VERTEX
  8
LAYER_1
 10
15.5876
 20
-220.6075
  0
SEQEND
  0
POLYLINE
  8
LAYER_1
 40
0.1764
 41
0.1764
 62
1
 66
1
 10
0
 20
0
 30
0
  0
VERTEX
  8
LAYER_1
 10
11.543
 20
-222.9382
  0
VERTEX
  8
LAYER_1
 10
14.2394
 20
-218.2652
  0
SEQEND
  0
POLYLINE
  8
LAYER_1
 40
0.1764
 41
0.1764
 62
1
 66
1
 10
0
 20
0
 30
0
  0
VERTEX
  8
LAYER_1
 10
8.8466
 20
-222.9382
  0
VERTEX
  8
LAYER_1
 10
12.8912
 20
-215.9345
  0
SEQEND
  0
TEXT
  8
LAYER_1
 10
15.8395
 20
-220.4072
 11
15.8395
 21
-220.4072
 40
5.6299
 41
0.5
  1
B
  0
ENDBLK
  0
BLOCK
  8
LAYER_1
  2
AIGNBL0101005F
 70
64
 10
0
 20
0
 30
0
  3
AIGNBL0101005F
  0
POLYLINE
  8
LAYER_1
 40
0.05
 41
0.05
 66
1
 10
0
 20
0
 30
0
 70
1
  0
VERTEX
  8
LAYER_1
 10
-28.2754
 20
-235.6092
  0
VERTEX
  8
LAYER_1
 10
-27.2764
 20
-235.6092
  0
VERTEX
  8
LAYER_1
 10
-27.2764
 20
-237.8786
  0
VERTEX
  8
LAYER_1
 10
-24.6779
 20
-237.8786
  0
VERTEX
  8
LAYER_1
 10
-24.6779
 20
-235.6092
  0
VERTEX
  8
LAYER_1
 10
-23.679
 20
-235.6092
  0
VERTEX
  8
LAYER_1
 10
-23.679
 20
-241.3163
  0
VERTEX
  8
LAYER_1
 10
-24.6779
 20
-241.3163
  0
VERTEX
  8
LAYER_1
 10
-24.6779
 20
-238.7437
  0
VERTEX
  8
LAYER_1
 10
-27.2764
 20
-238.7437
  0
VERTEX
  8
LAYER_1
 10
-27.2759
 20
-241.3163
  0
VERTEX
  8
LAYER_1
 10
-28.2754
 20
-241.3163
  0
SEQEND
  0
POLYLINE
  8
LAYER_1
 40
0.05
 41
0.05
 66
1
 10
0
 20
0
 30
0
 70
1
  0
VERTEX
  8
LAYER_1
 10
-23.2646
 20
-237.9094
  0
VERTEX
  8
LAYER_1
 10
-22.3534
 20
-237.9094
  0
VERTEX
  8
LAYER_1
 10
-22.3534
 20
-241.3163
  0
VERTEX
  8
LAYER_1
 10
-23.2646
 20
-241.3163
  0
SEQEND
  0
POLYLINE
  8
LAYER_1
 40
0.05
 41
0.05
 66
1
 10
0
 20
0
 30
0
 70
1
  0
VERTEX
  8
LAYER_1
 10
-21.9369
 20
-237.9094
  0
VERTEX
  8
LAYER_1
 10
-20.4209
 20
-237.9094
  0
VERTEX
  8
LAYER_1
 10
-20.4209
 20
-238.7739
  0
VERTEX
  8
LAYER_1
 10
-21.9369
 20
-238.7739
  0
SEQEND
  0
POLYLINE
  8
LAYER_1
 40
0.05
 41
0.05
 66
1
 10
0
 20
0
 30
0
 70
1
  0
VERTEX
  8
LAYER_1
 10
-15.8827
 20
-237.4246
 42
0.1052921723
  0
VERTEX
  8
LAYER_1
 10
-16.1867
 20
-236.7776
 42
0.1257645583
  0
VERTEX
  8
LAYER_1
 10
-16.6682
 20
-236.4079
 42
0.1014306612
  0
VERTEX
  8
LAYER_1
 10
-17.3049
 20
-236.2886
 42
0.1081053876
  0
VERTEX
  8
LAYER_1
 10
-18.0076
 20
-236.4324
 42
0.112164396
  0
VERTEX
  8
LAYER_1
 10
-18.5332
 20
-236.8368
 42
0.0961210096
  0
VERTEX
  8
LAYER_1
 10
-18.8987
 20
-237.5198
 42
0.0775223022
  0
VERTEX
  8
LAYER_1
 10
-19.039
 20
-238.4631
 42
0.0800315997
  0
VERTEX
  8
LAYER_1
 10
-18.8911
 20
-239.4294
 42
0.09720455451
  0
VERTEX
  8
LAYER_1
 10
-18.5183
 20
-240.1065
 42
0.2253507452
  0
VERTEX
  8
LAYER_1
 10
-17.3049
 20
-240.6371
 42
0.1177887421
  0
VERTEX
  8
LAYER_1
 10
-16.6517
 20
-240.4908
 42
0.1208595778
  0
VERTEX
  8
LAYER_1
 10
-16.1786
 20
-240.0821
 42
0.1346194098
  0
VERTEX
  8
LAYER_1
 10
-15.85
 20
-239.1431
  0
VERTEX
  8
LAYER_1
 10
-14.8754
 20
-239.1431
 42
-0.08330854133
  0
VERTEX
  8
LAYER_1
 10
-15.0717
 20
-240.0273
 42
-0.3077147413
  0
VERTEX
  8
LAYER_1
 10
-17.3049
 20
-241.453
 42
-0.0792470512
  0
VERTEX
  8
LAYER_1
 10
-18.1925
 20
-241.3169
 42
-0.1729202028
  0
VERTEX
  8
LAYER_1
 10
-19.5364
 20
-240.2723
 42
-0.07989755281
  0
VERTEX
  8
LAYER_1
 10
-19.9242
 20
-239.3798
 42
-0.06352064474
  0
VERTEX
  8
LAYER_1
 10
-20.0388
 20
-238.4631
 42
-0.07181830262
  0
VERTEX
  8
LAYER_1
 10
-19.8954
 20
-237.4436
 42
-0.07804335515
  0
VERTEX
  8
LAYER_1
 10
-19.4985
 20
-236.5982
 42
-0.2508286473
  0
VERTEX
  8
LAYER_1
 10
-17.3049
 20
-235.4737
 42
-0.07922924952
  0
VERTEX
  8
LAYER_1
 10
-16.3485
 20
-235.6254
 42
-0.09001284445
  0
VERTEX
  8
LAYER_1
 10
-15.6165
 20
-236.0217
 42
-0.2035526241
  0
VERTEX
  8
LAYER_1
 10
-14.8828
 20
-237.4246
  0
SEQEND
  0
INSERT
  8
LAYER_1
  2
AIGNBL01020060
 10
0
 20
0
 30
0
  0
POLYLINE
  8
LAYER_1
 40
0.05
 41
0.05
 66
1
 10
0
 20
0
 30
0
 70
1
  0
VERTEX
  8
LAYER_1
 10
-10.2624
 20
-237.1841
  0
VERTEX
  8
LAYER_1
 10
-9.408
 20
-237.1841
  0
VERTEX
  8
LAYER_1
 10
-9.408
 20
-237.9831
  0
VERTEX
  8
LAYER_1
 10
-9.3926
 20
-237.9831
 42
-0.132735082
  0
VERTEX
  8
LAYER_1
 10
-9.0937
 20
-237.4838
 42
-0.1882303303
  0
VERTEX
  8
LAYER_1
 10
-8.1867
 20
-237.0726
  0
VERTEX
  8
LAYER_1
 10
-7.8426
 20
-237.0964
  0
VERTEX
  8
LAYER_1
 10
-7.8426
 20
-237.9751
  0
VERTEX
  8
LAYER_1
 10
-8.2328
 20
-237.9347
 42
0.2785078637
  0
VERTEX
  8
LAYER_1
 10
-9.162
 20
-238.5016
 42
0.1259947591
  0
VERTEX
  8
LAYER_1
 10
-9.3517
 20
-239.3504
  0
VERTEX
  8
LAYER_1
 10
-9.3517
 20
-241.3163
  0
VERTEX
  8
LAYER_1
 10
-10.2624
 20
-241.3163
  0
SEQEND
  0
INSERT
  8
LAYER_1
  2
AIGNBL01020061
 10
0
 20
0
 30
0
  0
POLYLINE
  8
LAYER_1
 40
0.05
 41
0.05
 66
1
 10
0
 20
0
 30
0
 70
1
  0
VERTEX
  8
LAYER_1
 10
-3.3278
 20
-237.1841
  0
VERTEX
  8
LAYER_1
 10
-2.466
 20
-237.1841
  0
VERTEX
  8
LAYER_1
 10
-2.466
 20
-237.7594
  0
VERTEX
  8
LAYER_1
 10
-2.4421
 20
-237.7594
 42
-0.1124773113
  0
VERTEX
  8
LAYER_1
 10
-1.949
 20
-237.2631
 42
-0.1404330004
  0
VERTEX
  8
LAYER_1
 10
-1.1703
 20
-237.0716
 42
-0.316425527
  0
VERTEX
  8
LAYER_1
 10
-0.011
 20
-237.7594
 42
-0.1079694146
  0
VERTEX
  8
LAYER_1
 10
0.516
 20
-237.2627
 42
-0.134345397
  0
VERTEX
  8
LAYER_1
 10
1.2847
 20
-237.0716
 42
-0.1055536835
  0
VERTEX
  8
LAYER_1
 10
2.0203
 20
-237.2042
 42
-0.1411270444
  0
VERTEX
  8
LAYER_1
 10
2.4424
 20
-237.5538
 42
-0.120906486
  0
VERTEX
  8
LAYER_1
 10
2.6525
 20
-238.1753
 42
-0.03591928657
  0
VERTEX
  8
LAYER_1
 10
2.6682
 20
-238.4631
  0
VERTEX
  8
LAYER_1
 10
2.6682
 20
-241.3163
  0
VERTEX
  8
LAYER_1
 10
1.7563
 20
-241.3163
  0
VERTEX
  8
LAYER_1
 10
1.7563
 20
-238.9019
 42
0.1115818348
  0
VERTEX
  8
LAYER_1
 10
1.6564
 20
-238.1199
 42
0.1987921507
  0
VERTEX
  8
LAYER_1
 10
1.371
 20
-237.85
 42
0.08635838492
  0
VERTEX
  8
LAYER_1
 10
1.0038
 20
-237.7916
 42
0.149711414
  0
VERTEX
  8
LAYER_1
 10
0.4994
 20
-237.9251
 42
0.1601855652
  0
VERTEX
  8
LAYER_1
 10
0.2137
 20
-238.307
 42
0.084598827
  0
VERTEX
  8
LAYER_1
 10
0.1258
 20
-238.8935
  0
VERTEX
  8
LAYER_1
 10
0.1258
 20
-241.3163
  0
VERTEX
  8
LAYER_1
 10
-0.786
 20
-241.3163
  0
VERTEX
  8
LAYER_1
 10
-0.786
 20
-238.6632
 42
0.1327136508
  0
VERTEX
  8
LAYER_1
 10
-0.9039
 20
-238.073
 42
0.1959206653
  0
VERTEX
  8
LAYER_1
 10
-1.2225
 20
-237.8289
 42
0.06434075579
  0
VERTEX
  8
LAYER_1
 10
-1.5137
 20
-237.7916
 42
0.3010210673
  0
VERTEX
  8
LAYER_1
 10
-2.3171
 20
-238.3446
 42
0.09991648238
  0
VERTEX
  8
LAYER_1
 10
-2.4156
 20
-238.8628
  0
VERTEX
  8
LAYER_1
 10
-2.4156
 20
-241.3163
  0
VERTEX
  8
LAYER_1
 10
-3.3278
 20
-241.3163
  0
SEQEND
  0
INSERT
  8
LAYER_1
  2
AIGNBL01020062
 10
0
 20
0
 30
0
  0
POLYLINE
  8
LAYER_1
 40
0.05
 41
0.05
 66
1
 10
0
 20
0
 30
0
 70
1
  0
VERTEX
  8
LAYER_1
 10
7.2294
 20
-238.5672
 42
0.1464447523
  0
VERTEX
  8
LAYER_1
 10
7.0199
 20
-238.0856
 42
0.2236736597
  0
VERTEX
  8
LAYER_1
 10
6.2882
 20
-237.7916
 42
0.1302500633
  0
VERTEX
  8
LAYER_1
 10
5.732
 20
-237.9293
 42
0.1406041674
  0
VERTEX
  8
LAYER_1
 10
5.3518
 20
-238.3262
 42
0.1294232474
  0
VERTEX
  8
LAYER_1
 10
5.1513
 20
-239.2944
 42
0.09750821402
  0
VERTEX
  8
LAYER_1
 10
5.2895
 20
-240.0441
 42
0.1338862906
  0
VERTEX
  8
LAYER_1
 10
5.6428
 20
-240.5193
 42
0.1658105043
  0
VERTEX
  8
LAYER_1
 10
6.2484
 20
-240.7088
 42
0.2928925571
  0
VERTEX
  8
LAYER_1
 10
7.1136
 20
-240.1626
 42
0.07126529062
  0
VERTEX
  8
LAYER_1
 10
7.2294
 20
-239.7658
  0
VERTEX
  8
LAYER_1
 10
8.1409
 20
-239.7658
 42
-0.09044610875
  0
VERTEX
  8
LAYER_1
 10
7.8733
 20
-240.5724
 42
-0.2179010094
  0
VERTEX
  8
LAYER_1
 10
6.76
 20
-241.3779
 42
-0.05161525893
  0
VERTEX
  8
LAYER_1
 10
6.2484
 20
-241.4298
 42
-0.09359589365
  0
VERTEX
  8
LAYER_1
 10
5.4356
 20
-241.2862
 42
-0.2096317525
  0
VERTEX
  8
LAYER_1
 10
4.4172
 20
-240.259
 42
-0.09657847883
  0
VERTEX
  8
LAYER_1
 10
4.242
 20
-239.2944
 42
-0.08224785352
  0
VERTEX
  8
LAYER_1
 10
4.3857
 20
-238.3714
 42
-0.09734340571
  0
VERTEX
  8
LAYER_1
 10
4.7673
 20
-237.6969
 42
-0.104191885
  0
VERTEX
  8
LAYER_1
 10
5.3406
 20
-237.265
 42
-0.111899855
  0
VERTEX
  8
LAYER_1
 10
6.2793
 20
-237.0716
 42
-0.08703368299
  0
VERTEX
  8
LAYER_1
 10
7.0997
 20
-237.2068
 42
-0.1043941753
  0
VERTEX
  8
LAYER_1
 10
7.686
 20
-237.5635
 42
-0.1875882808
  0
VERTEX
  8
LAYER_1
 10
8.1409
 20
-238.5672
  0
SEQEND
  0
POLYLINE
  8
LAYER_1
 40
0.05
 41
0.05
 66
1
 10
0
 20
0
 30
0
 70
1
  0
VERTEX
  8
LAYER_1
 10
9.3158
 20
-239.9902
 42
0.3370496068
  0
VERTEX
  8
LAYER_1
 10
9.9159
 20
-240.6732
 42
0.07255227803
  0
VERTEX
  8
LAYER_1
 10
10.2515
 20
-240.7088
 42
0.1167322896
  0
VERTEX
  8
LAYER_1
 10
10.917
 20
-240.5819
 42
0.3019935713
  0
VERTEX
  8
LAYER_1
 10
11.1698
 20
-240.1654
 42
0.2197456143
  0
VERTEX
  8
LAYER_1
 10
11.004
 20
-239.8428
 42
0.1183042302
  0
VERTEX
  8
LAYER_1
 10
10.321
 20
-239.5857
 42
0.01804930053
  0
VERTEX
  8
LAYER_1
 10
9.8189
 20
-239.4798
 42
-0.09002078879
  0
VERTEX
  8
LAYER_1
 10
8.9762
 20
-239.1765
 42
-0.2705326955
  0
VERTEX
  8
LAYER_1
 10
8.4935
 20
-238.2544
 42
-0.2834544493
  0
VERTEX
  8
LAYER_1
 10
9.0588
 20
-237.3337
 42
-0.1286799193
  0
VERTEX
  8
LAYER_1
 10
10.2188
 20
-237.0716
 42
-0.0880867054
  0
VERTEX
  8
LAYER_1
 10
11.041
 20
-237.2054
 42
-0.11603821
  0
VERTEX
  8
LAYER_1
 10
11.5979
 20
-237.562
 42
-0.1642937465
  0
VERTEX
  8
LAYER_1
 10
11.9463
 20
-238.3429
  0
VERTEX
  8
LAYER_1
 10
10.9949
 20
-238.3429
 42
0.178904242
  0
VERTEX
  8
LAYER_1
 10
10.7873
 20
-237.9686
 42
0.1811838698
  0
VERTEX
  8
LAYER_1
 10
10.1555
 20
-237.7916
 42
0.1324370715
  0
VERTEX
  8
LAYER_1
 10
9.5784
 20
-237.9195
 42
0.2683060879
  0
VERTEX
  8
LAYER_1
 10
9.4041
 20
-238.215
 42
0.232075683
  0
VERTEX
  8
LAYER_1
 10
9.5481
 20
-238.5124
 42
0.1186779173
  0
VERTEX
  8
LAYER_1
 10
10.2231
 20
-238.7668
 42
0.0187132002
  0
VERTEX
  8
LAYER_1
 10
10.7456
 20
-238.8771
 42
-0.08740832246
  0
VERTEX
  8
LAYER_1
 10
11.602
 20
-239.1918
 42
-0.2676717597
  0
VERTEX
  8
LAYER_1
 10
12.0812
 20
-240.0861
 42
-0.2593488033
  0
VERTEX
  8
LAYER_1
 10
11.5284
 20
-241.0955
 42
-0.09698509487
  0
VERTEX
  8
LAYER_1
 10
10.7845
 20
-241.3791
 42
-0.0461523146
  0
VERTEX
  8
LAYER_1
 10
10.2356
 20
-241.4298
 42
-0.08545335297
  0
VERTEX
  8
LAYER_1
 10
9.3537
 20
-241.2924
 42
-0.1112539268
  0
VERTEX
  8
LAYER_1
 10
8.7802
 20
-240.9424
 42
-0.2015927115
  0
VERTEX
  8
LAYER_1
 10
8.4036
 20
-239.9902
  0
SEQEND
  0
POLYLINE
  8
LAYER_1
 40
0.05
 41
0.05
 62
1
 66
1
 10
0
 20
0
 30
0
 70
1
  0
VERTEX
  8
LAYER_1
 10
-22.2745
 20
-235.3597
  0
VERTEX
  8
LAYER_1
 10
-23.3426
 20
-235.3597
  0
VERTEX
  8
LAYER_1
 10
-22.8068
 20
-237.7163
  0
SEQEND
  0
ENDBLK
  0
BLOCK
  8
LAYER_1
  2
AIGNBL01010063
 70
64
 10
0
 20
0
 30
0
  3
AIGNBL01010063
  0
POLYLINE
  8
LAYER_1
 40
0.05
 41
0.05
 62
254
 66
1
 10
0
 20
0
 30
0
 70
1
  0
VERTEX
  8
LAYER_1
 10
44.748
 20
-222.235
  0
VERTEX
  8
LAYER_1
 10
44.6466
 20
-222.1481
 42
-0.224052016
  0
VERTEX
  8
LAYER_1
 10
44.6611
 20
-222.0322
  0
VERTEX
  8
LAYER_1
 10
46.6744
 20
-218.3387
  0
VERTEX
  8
LAYER_1
 10
48.9919
 20
-214.2106
 42
-0.1314724434
  0
VERTEX
  8
LAYER_1
 10
49.7016
 20
-212.9939
 42
-0.1718137986
  0
VERTEX
  8
LAYER_1
 10
49.861
 20
-212.9505
  0
VERTEX
  8
LAYER_1
 10
54.5829
 20
-212.965
  0
VERTEX
  8
LAYER_1
 10
60.2173
 20
-213.0084
 42
-0.1404425733
  0
VERTEX
  8
LAYER_1
 10
60.8256
 20
-213.0519
 42
-0.03825118263
  0
VERTEX
  8
LAYER_1
 10
61.4195
 20
-214.0223
  0
VERTEX
  8
LAYER_1
 10
63.2445
 20
-217.122
  0
VERTEX
  8
LAYER_1
 10
65.6634
 20
-221.3225
  0
VERTEX
  8
LAYER_1
 10
66.0979
 20
-222.1336
 42
-0.4178165192
  0
VERTEX
  8
LAYER_1
 10
66.0255
 20
-222.2929
  0
VERTEX
  8
LAYER_1
 10
64.1426
 20
-222.2784
  0
VERTEX
  8
LAYER_1
 10
59.102
 20
-222.2495
  0
VERTEX
  8
LAYER_1
 10
53.7862
 20
-222.206
  0
VERTEX
  8
LAYER_1
 10
47.8042
 20
-222.235
  0
SEQEND
  0
ENDBLK
  0
ENDSEC
  0
SECTION
  2
ENTITIES
  0
INSERT
  8
LAYER_1
  2
AIGNBL01010002
 10
0
 20
0
 30
0
  0
INSERT
  8
LAYER_1
  2
AIGNBL01010004
 10
0
 20
0
 30
0
  0
INSERT
  8
LAYER_1
  2
AIGNBL01010005
 10
0
 20
0
 30
0
  0
INSERT
  8
LAYER_1
  2
AIGNBL01010007
 10
0
 20
0
 30
0
  0
INSERT
  8
LAYER_1
  2
AIGNBL01010008
 10
0
 20
0
 30
0
  0
INSERT
  8
LAYER_1
  2
AIGNBL0101000A
 10
0
 20
0
 30
0
  0
INSERT
  8
LAYER_1
  2
AIGNBL0101000B
 10
0
 20
0
 30
0
  0
INSERT
  8
LAYER_1
  2
AIGNBL0101000D
 10
0
 20
0
 30
0
  0
INSERT
  8
LAYER_1
  2
AIGNBL0101000E
 10
0
 20
0
 30
0
  0
INSERT
  8
LAYER_1
  2
AIGNBL01010010
 10
0
 20
0
 30
0
  0
INSERT
  8
LAYER_1
  2
AIGNBL01010011
 10
0
 20
0
 30
0
  0
INSERT
  8
LAYER_1
  2
AIGNBL01010013
 10
0
 20
0
 30
0
  0
INSERT
  8
LAYER_1
  2
AIGNBL01010014
 10
0
 20
0
 30
0
  0
INSERT
  8
LAYER_1
  2
AIGNBL01010016
 10
0
 20
0
 30
0
  0
INSERT
  8
LAYER_1
  2
AIGNBL01010017
 10
0
 20
0
 30
0
  0
INSERT
  8
LAYER_1
  2
AIGNBL01010019
 10
0
 20
0
 30
0
  0
INSERT
  8
LAYER_1
  2
AIGNBL0101001A
 10
0
 20
0
 30
0
  0
INSERT
  8
LAYER_1
  2
AIGNBL0101001C
 10
0
 20
0
 30
0
  0
INSERT
  8
LAYER_1
  2
AIGNBL0101001D
 10
0
 20
0
 30
0
  0
INSERT
  8
LAYER_1
  2
AIGNBL0101001F
 10
0
 20
0
 30
0
  0
INSERT
  8
LAYER_1
  2
AIGNBL01010020
 10
0
 20
0
 30
0
  0
INSERT
  8
LAYER_1
  2
AIGNBL01010022
 10
0
 20
0
 30
0
  0
INSERT
  8
LAYER_1
  2
AIGNBL01010023
 10
0
 20
0
 30
0
  0
INSERT
  8
LAYER_1
  2
AIGNBL01010025
 10
0
 20
0
 30
0
  0
INSERT
  8
LAYER_1
  2
AIGNBL01010026
 10
0
 20
0
 30
0
  0
INSERT
  8
LAYER_1
  2
AIGNBL01010028
 10
0
 20
0
 30
0
  0
INSERT
  8
LAYER_1
  2
AIGNBL01010029
 10
0
 20
0
 30
0
  0
INSERT
  8
LAYER_1
  2
AIGNBL0101002B
 10
0
 20
0
 30
0
  0
INSERT
  8
LAYER_1
  2
AIGNBL0101002C
 10
0
 20
0
 30
0
  0
INSERT
  8
LAYER_1
  2
AIGNBL0101002E
 10
0
 20
0
 30
0
  0
INSERT
  8
LAYER_1
  2
AIGNBL0101002F
 10
0
 20
0
 30
0
  0
INSERT
  8
LAYER_1
  2
AIGNBL01010031
 10
0
 20
0
 30
0
  0
INSERT
  8
LAYER_1
  2
AIGNBL01010032
 10
0
 20
0
 30
0
  0
INSERT
  8
LAYER_1
  2
AIGNBL01010034
 10
0
 20
0
 30
0
  0
INSERT
  8
LAYER_1
  2
AIGNBL01010035
 10
0
 20
0
 30
0
  0
INSERT
  8
LAYER_1
  2
AIGNBL01010037
 10
0
 20
0
 30
0
  0
INSERT
  8
LAYER_1
  2
AIGNBL01010038
 10
0
 20
0
 30
0
  0
INSERT
  8
LAYER_1
  2
AIGNBL0101003A
 10
0
 20
0
 30
0
  0
INSERT
  8
LAYER_1
  2
AIGNBL0101003B
 10
0
 20
0
 30
0
  0
INSERT
  8
LAYER_1
  2
AIGNBL0101003D
 10
0
 20
0
 30
0
  0
INSERT
  8
LAYER_1
  2
AIGNBL0101003E
 10
0
 20
0
 30
0
  0
INSERT
  8
LAYER_1
  2
AIGNBL01010040
 10
0
 20
0
 30
0
  0
INSERT
  8
LAYER_1
  2
AIGNBL01010041
 10
0
 20
0
 30
0
  0
INSERT
  8
LAYER_1
  2
AIGNBL01010043
 10
0
 20
0
 30
0
  0
INSERT
  8
LAYER_1
  2
AIGNBL01010044
 10
0
 20
0
 30
0
  0
INSERT
  8
LAYER_1
  2
AIGNBL01010046
 10
0
 20
0
 30
0
  0
INSERT
  8
LAYER_1
  2
AIGNBL01010047
 10
0
 20
0
 30
0
  0
INSERT
  8
LAYER_1
  2
AIGNBL01010049
 10
0
 20
0
 30
0
  0
INSERT
  8
LAYER_1
  2
AIGNBL0101004A
 10
0
 20
0
 30
0
  0
INSERT
  8
LAYER_1
  2
AIGNBL0101004C
 10
0
 20
0
 30
0
  0
INSERT
  8
LAYER_1
  2
AIGNBL0101004D
 10
0
 20
0
 30
0
  0
INSERT
  8
LAYER_1
  2
AIGNBL0101004F
 10
0
 20
0
 30
0
  0
INSERT
  8
LAYER_1
  2
AIGNBL01010050
 10
0
 20
0
 30
0
  0
INSERT
  8
LAYER_1
  2
AIGNBL01010052
 10
0
 20
0
 30
0
  0
INSERT
  8
LAYER_1
  2
AIGNBL01010053
 10
0
 20
0
 30
0
  0
INSERT
  8
LAYER_1
  2
AIGNBL01010055
 10
0
 20
0
 30
0
  0
INSERT
  8
LAYER_1
  2
AIGNBL01010056
 10
0
 20
0
 30
0
  0
INSERT
  8
LAYER_1
  2
AIGNBL01010058
 10
0
 20
0
 30
0
  0
INSERT
  8
LAYER_1
  2
AIGNBL01010059
 10
0
 20
0
 30
0
  0
INSERT
  8
LAYER_1
  2
AIGNBL0101005B
 10
0
 20
0
 30
0
  0
INSERT
  8
LAYER_1
  2
AIGNBL0101005C
 10
0
 20
0
 30
0
  0
INSERT
  8
LAYER_1
  2
AIGNBL0101005E
 10
0
 20
0
 30
0
  0
POLYLINE
  8
LAYER_1
 40
0.05
 41
0.05
 66
1
 10
0
 20
0
 30
0
 70
1
  0
VERTEX
  8
LAYER_1
 10
253.8045
 20
-253.5342
  0
VERTEX
  8
LAYER_1
 10
-43.1955
 20
-253.5342
  0
VERTEX
  8
LAYER_1
 10
-43.1955
 20
-43.5342
  0
VERTEX
  8
LAYER_1
 10
253.8045
 20
-43.5342
  0
SEQEND
  0
POLYLINE
  8
LAYER_1
 40
0.3528
 41
0.3528
 66
1
 10
0
 20
0
 30
0
 70
1
  0
VERTEX
  8
LAYER_1
 10
-33.1956
 20
-233.5341
  0
VERTEX
  8
LAYER_1
 10
-33.1956
 20
-53.5342
  0
VERTEX
  8
LAYER_1
 10
243.8042
 20
-53.5342
  0
VERTEX
  8
LAYER_1
 10
243.8042
 20
-233.5341
  0
SEQEND
  0
POLYLINE
  8
LAYER_1
 40
0.3528
 41
0.3528
 66
1
 10
0
 20
0
 30
0
 70
1
  0
VERTEX
  8
LAYER_1
 10
-33.1956
 20
-233.5341
  0
VERTEX
  8
LAYER_1
 10
-33.1956
 20
-53.5342
  0
VERTEX
  8
LAYER_1
 10
243.8042
 20
-53.5342
  0
VERTEX
  8
LAYER_1
 10
243.8042
 20
-233.5341
  0
SEQEND
  0
POLYLINE
  8
LAYER_1
 40
0.3528
 41
0.3528
 66
1
 10
0
 20
0
 30
0
  0
VERTEX
  8
LAYER_1
 10
16.2512
 20
-243.5341
  0
VERTEX
  8
LAYER_1
 10
16.2512
 20
-233.5341
  0
SEQEND
  0
POLYLINE
  8
LAYER_1
 40
0.3528
 41
0.3528
 66
1
 10
0
 20
0
 30
0
  0
VERTEX
  8
LAYER_1
 10
-33.1956
 20
-243.5341
  0
VERTEX
  8
LAYER_1
 10
-33.1956
 20
-233.5341
  0
SEQEND
  0
POLYLINE
  8
LAYER_1
 40
0.3528
 41
0.3528
 66
1
 10
0
 20
0
 30
0
  0
VERTEX
  8
LAYER_1
 10
33.9612
 20
-243.5341
  0
VERTEX
  8
LAYER_1
 10
33.9612
 20
-233.5341
  0
SEQEND
  0
POLYLINE
  8
LAYER_1
 40
0.3528
 41
0.3528
 66
1
 10
0
 20
0
 30
0
  0
VERTEX
  8
LAYER_1
 10
243.8042
 20
-243.5341
  0
VERTEX
  8
LAYER_1
 10
243.8042
 20
-233.5341
  0
SEQEND
  0
POLYLINE
  8
LAYER_1
 40
0.3528
 41
0.3528
 66
1
 10
0
 20
0
 30
0
  0
VERTEX
  8
LAYER_1
 10
86.1593
 20
-243.5341
  0
VERTEX
  8
LAYER_1
 10
86.1593
 20
-233.5341
  0
SEQEND
  0
POLYLINE
  8
LAYER_1
 40
0.3528
 41
0.3528
 66
1
 10
0
 20
0
 30
0
  0
VERTEX
  8
LAYER_1
 10
243.8042
 20
-243.5341
  0
VERTEX
  8
LAYER_1
 10
-33.1956
 20
-243.5341
  0
SEQEND
  0
INSERT
  8
LAYER_1
  2
AIGNBL0101005F
 10
0
 20
0
 30
0
  0
TEXT
  8
LAYER_1
 10
18.7262
 20
-239.8753
 11
18.7262
 21
-239.8753
 40
2.8695
 41
0.5
  1
シリーズ名
  0
TEXT
  8
LAYER_1
 10
36.2563
 20
-240.6884
 11
36.2563
 21
-240.6884
 40
5.5407
 41
0.5
  1
El Mago（エルマーゴ）
  0
TEXT
  8
LAYER_1
 10
89.7163
 20
-240.5086
 11
89.7163
 21
-240.5086
 40
4.6955
 41
0.5
  1
カタログ施工例タイルパターン
  0
INSERT
  8
LAYER_1
  2
AIGNBL01010063
 10
0
 20
0
 30
0
  0
POLYLINE
  8
LAYER_1
 40
0.1058
 41
0.1058
 66
1
 10
0
 20
0
 30
0
  0
VERTEX
  8
LAYER_1
 10
42.8216
 20
-222.1902
  0
VERTEX
  8
LAYER_1
 10
42.8216
 20
-212.5672
  0
SEQEND
  0
POLYLINE
  8
LAYER_1
 40
0.1058
 41
0.1058
 66
1
 10
0
 20
0
 30
0
  0
VERTEX
  8
LAYER_1
 10
43.7627
 20
-222.1902
  0
VERTEX
  8
LAYER_1
 10
41.8805
 20
-222.1902
  0
SEQEND
  0
POLYLINE
  8
LAYER_1
 40
0.1058
 41
0.1058
 66
1
 10
0
 20
0
 30
0
  0
VERTEX
  8
LAYER_1
 10
43.7627
 20
-212.5673
  0
VERTEX
  8
LAYER_1
 10
41.8805
 20
-212.5673
  0
SEQEND
  0
TEXT
  8
LAYER_1
 10
41.9266
 20
-218.8463
 11
41.9266
 21
-218.8463
 40
2.4358
 41
0.5
 50
89.99999999
  1
69
  0
POLYLINE
  8
LAYER_1
 40
0.1058
 41
0.1058
 66
1
 10
0
 20
0
 30
0
  0
VERTEX
  8
LAYER_1
 10
49.6348
 20
-211.1299
  0
VERTEX
  8
LAYER_1
 10
60.628
 20
-211.1299
  0
SEQEND
  0
POLYLINE
  8
LAYER_1
 40
0.1058
 41
0.1058
 66
1
 10
0
 20
0
 30
0
  0
VERTEX
  8
LAYER_1
 10
49.6347
 20
-212.071
  0
VERTEX
  8
LAYER_1
 10
49.6347
 20
-210.1889
  0
SEQEND
  0
POLYLINE
  8
LAYER_1
 40
0.1058
 41
0.1058
 66
1
 10
0
 20
0
 30
0
  0
VERTEX
  8
LAYER_1
 10
60.628
 20
-212.071
  0
VERTEX
  8
LAYER_1
 10
60.628
 20
-210.1889
  0
SEQEND
  0
TEXT
  8
LAYER_1
 10
53.1265
 20
-209.9991
 11
53.1265
 21
-209.9991
 40
2.4358
 41
0.5
  1
80
  0
POLYLINE
  8
LAYER_1
 40
0.1058
 41
0.1058
 66
1
 10
0
 20
0
 30
0
  0
VERTEX
  8
LAYER_1
 10
44.7114
 20
-224.1854
  0
VERTEX
  8
LAYER_1
 10
65.6876
 20
-224.1854
  0
SEQEND
  0
POLYLINE
  8
LAYER_1
 40
0.1058
 41
0.1058
 66
1
 10
0
 20
0
 30
0
  0
VERTEX
  8
LAYER_1
 10
44.7113
 20
-225.1264
  0
VERTEX
  8
LAYER_1
 10
44.7113
 20
-223.2443
  0
SEQEND
  0
POLYLINE
  8
LAYER_1
 40
0.1058
 41
0.1058
 66
1
 10
0
 20
0
 30
0
  0
VERTEX
  8
LAYER_1
 10
65.6876
 20
-225.1264
  0
VERTEX
  8
LAYER_1
 10
65.6876
 20
-223.2443
  0
SEQEND
  0
TEXT
  8
LAYER_1
 10
53.7893
 20
-226.9547
 11
53.7893
 21
-226.9547
 40
2.4358
 41
0.5
  1
160
  0
ENDSEC
  0
EOF
